Ads

Hikoukigumo (The Wind Rises) Guitar Tab

Submitted: Jun 14, 2014 by Pupos (Last updated: Jul 17, 2014)

5
Average: 5 (1 vote)
Download | Listen
Game: The Wind Rises
Composer(s): Joe Hisaishi
Style: Arrangement, Fingerstyle

This song is also called Vapor Trail

Click here for a video example.

AutoScroll: Slow | Medium | Fast
Kaze Tachinu ED
[tab by Roman Averyanov]
Tempo = 90


E |--0-----3-----0-----3-------|--0-----3-----0-----3-------|
B |----------------------------|----------------------------|
G |----------------------------|-----2-----2-----2-----2----|
D |-----2-----2-----2-----2----|--3-------------------------|
A |--3-------------------------|----------------------------|
E |----------------------------|----------------------------|


--0-----3-----0-----3-------|
----------------------------|
----------------------------|
-----2-----2-----2-----2----|
--3-------------------------|
----------------------------|


--0-----------3-------------------------------------||
----------------------------------------------------||
--------2-----------------------------0--2L-2-------||
--3-----------------------0-------------------------||
--------------------2--3--2-------------------------||
--------------------------3-------------------------||


---------------------------------------------------|
---------------------------------------------------|
o0-----------------0--2L-2-----0-----0-----0-------|
o--------------------------------------------------|
-3-----------3--------3L-3-------------------------|
---------------------------------------------------|


--------------------------0L----------0-------------|
--------------0g------------------------------------|
--------------------------------------------0--0----|
----------------------------------------------------|
--------2-----------2g------------------------------|
--0-------------------------------------------------|


----------------------------|
-----------------------1----|
--0--------------0--2-------|
-----3----------------------|
--------------------3-------|
--1-----1-----0-------------|


----------------------------------------------------|
--1--------------------------------------------0----|
--2-----0--2L-2-----------------------------2-------|
--0-----------------0-------------------------------|
--------------------------0L----------0-------------|
----------------------------------------------------|


----------------------------------------------------|
-----------0L-0-----------------------0--1--0-------|
--------2--------------------------------------2----|
----------------------------------------------------|
----------------------------------------------------|
--3-----------------------1-------------------------|


--------------------------0-------------------------|
--------------0-------------------------------------|
--0--------------------------------------0L-0-------|
--------------------------------------2-------------|
--------------------2-------------------------------|
--------0-------------------------------------------|


----------------------------|--------------1--0----------|
-----------------------1----|--3-----------------3--1----|
--2--------------0--2-------|--------0-------------------|
--------3-------------------|-----3-----3----------------|
-----3-----3----------------|--------------2-------------|
--1-----------1-------------|--3-----------3-------------|


----------------------------------------------------|
----------------------------------------------------|
--0--------0--------0--2L-2-----0-----0-----0-------|
--2-----2-------------------------------------------|
--3-----------3--------3L-3-------------------------|
----------------------------------------------------|


--------------------------0-------------------------|
--------------0-----------------------0g------------|
--------------------------------------------0--0----|
----------------------------------------------------|
--------2-----------2-----------2g------------------|
--0-------------------------------------------------|


----------------------------|
-----------------------1----|
--0--------------0--2-------|
-----3-----3g---------------|
--------------------3-------|
--1-----1-----0-------------|


----------------------------------------------------|
-----------------------------------------------0----|
--2-----0--2L-2-----------------------------2-------|
--------------------0-----------------0-------------|
--------------------------0-------------------------|
----------------------------------------------------|


----------------------------------------------------|
-----------0--------------------------0--1--0-------|
--------2--------------------------------------2----|
--------------0-----------------------0-------------|
----------------------------------------------------|
--3-----------------------1-------------------------|


--------------0-------------|----------------------------|
--------0-------------------|-----------------------1----|
--0--------------------0----|--2--------------0--2-------|
--------------------2-------|--3-----3-------------------|
-----2-----2----------------|--3--3-----3----------------|
--0-------------------------|--1-----------1-------------|


----------------------------------------------------|
--3-----1--3--------------0-----------1--3L-3-------|
--------------2-----------0-------------------------|
--3-----------3-----------3-------------------------|
----------------------------------------------------|
--3-----------------3-------------------------------|


--0-----------3--0----------|----------------------------|
--1-----1-----0-----3--1----|--------------------1--3----|
--0--0-----0--0-------------|--------2-------------------|
--2-------------------------|-----2-----2----------------|
--3--------------------0L---|--0-----------0-------------|
--------------0-------------|----------------------------|


--0-----------5--3----------|
--0-----0-----3-----5--1----|
--0--0-----0--3--------2----|
--2--------------------2----|
--2--------------------0g---|
--0-----------3--------1L---|


----------------------------------------------------|
--------------------------------------------1--1----|
--------------2-------------------------------------|
--------2-----------2-------------------------------|
----------------------------------------------------|
--1-----------------------1-----------1-------------|


----------------------------------------------------|
--1-------------------------------------------------|
--------0L----0-----0-----------0-----------2--0----|
----------------------------------------------------|
--------------------------2-------------------------|
--3-----------------------------------0-------------|


----------------------------|
-----1-----------------1----|
--2-----------2-----2-------|
--3--------3----------------|
--0-----0-------------------|
--------------------1-------|


----------------------------------------------------|
--5-----3-----3-------------------------------------|
-----------5--------------4--------------4L-4-------|
--------------------------------------5-------------|
--------------------------------------5-------------|
--3-----------------3-----------3-------------------|


---------------------------||--0-----------3--0----------|
--------------------1g-3g--||--1-----1-----0-----3--1----|
--5--------5--4-----0--2--o||--0--0-----0--0-------------|
--5--------5--5-----------o||--2-------------------------|
--5-----5-----5------------||--3--------------------0----|
-----3---------------------||--------------0-------------|


----------------------------|--0-----------8--------5----|
--------------------1--3----|--1-----1-----6--------5----|
--------2-------------------|--0--0-----0--7-------------|
-----2-----2----------------|--2-----------5L----5-------|
--------------0-------------|--3-------------------------|
----------------------------|--0--------------------3L---|


--------3-----------------------------0-------------|
--------------5L----5--3--------------------3-------|
--------------------------5-------------------------|
----------------------------------------------------|
----------------------------------------------------|
--3-----------------------1-------------------------|


--0-----3L----3-----------------0-------------------|
--------------------------------------3-------------|
--------------------------0--------------------2----|
--------------------2-------------------------------|
--------------------------------------0-------------|
--0-------------------------------------------------|


--0-----------------------------------0-------------|
--------------------3--------------------3L-3-------|
--------------2-----------2-------------------------|
--------2-------------------------------------------|
--0-------------------------------------------------|
----------------------------------------------------|


----------------------------|
--------------------3-------|
--2--------------0----------|
--------0-------------------|
-----2-----2----------------|
--3-----------3-------------|


----------------------------------------------------|
--1-------------------------------------------------|
--2-----------------3-----------------------3-------|
--2-----------------3--------------------3-----3----|
--0-------------------------------------------------|
--1L----------1-----3L----3-----3-----3-------------|


--------------------------------------0-------------||
--------------------------------------------3-------||
--2-----------------3-----------------------3-------||
--2-----------------3--------------------3-----3----||
----------------------------------------------------||
--1L----------1-----3L----3-----3-----3-------------||


-0-----3L----3-------------------------------------|
---------------------------------------------------|
o2-----------------3-----------------------3-------|
o2-----------------3--------------------3-----3----|
---------------------------------------------------|
-1-----------------3L----3-----3-----3-------------|


--------------------------------------0------------||
--------------------------------------------3------||
--2-----------------3-----------------------3-----o||
--2-----------------3--------------------3-----3--o||
---------------------------------------------------||
--1L----------1-----3L----3-----3-----3------------||


----------------------------|----||
-----------0--------1-------|----||
--2--------0--------0-------|----||
--2-----------------2-------|----||
-----------2L-2-----3-------|----||
--1L----1-------------------|----||


Legend
L - tied note
x - dead note
h - hammer on/pull off
b - bend
s - slide
~ - vibrato
g - ghost note
> - accentuated note
t - trill
M - palm mute
. - staccato
P - popping (bass)
S - slapping (bass)
+ - tapping
W - wide vibrato
< - fade in
w - whammy bar
= - tremolo picking
v - brush up
^ - brush down
V - pick stroke up
n - pick stroke down

Login or Register to remove this ad.