Ads

Into the Wilderness (Wild Arms) Guitar Tab

Submitted: Nov 23, 2014 by andersongs87

5
Average: 5 (1 vote)
Download | Listen
Game: Wild Arms
Composer(s): Michiko Naruke
Style: Transcription
Series: Wild Arms

Click here for a video example.

AutoScroll: Slow | Medium | Fast
Wild Arms - Into the Wilderness

Composers -  Michiko Naruke

Tabbed by andersongs87

Tuning: 
Guitar Standard (EADGBe)

MP3 Download : https://www.mediafire.com/?bu54u1bxtmkcs8r
Youtube Cover : https://www.youtube.com/watch?v=8iYeTdr3uI4

21/November/2014

Capo on 3rd Fret.
e-----8~------8~----8~----8~-|------------------5-|-------10-------12---13-|
B-------------------------8~-|------------5-6-5---|---------------------15-|
G----------------------------|-----7------------5-|----10-------12---------|
D---7------7------7----------|---3------5---------|--8-------10------------|
A-5------3------5-----5-3----|--------3-----------|------------------------|
E----------------------------|-6------------------|------------------------|

e-----------------------------|-----------------------------|
B-----------------------------|-------------13-12-----------|
G--------------12-9-----------|---10-12-14--------14-12-14~-|
D----12-14-15~------10--------|-10--------------------------|
A-12-------------------10-12~-|-----------------------------|
E-----------------------------|-----------------------------|

e-----------------------|--------------------|-----------------|
B----15-17-18-15----17~-|-15-13-15-------13~-|-----------------|
G-14-------------14-----|----------14--------|----------12-----|
D-----------------------|-------------15-----|-12-14-15~---12~-|
A-----------------------|--------------------|-----------------|
E-----------------------|--------------------|-----------------|

e--------------------|
B-----5-6-10-8-5-----|
G---7------------5-7-|
D-7------------------|
A--------------------|
E--------------------|

e-----------------------------|-----------------------------|
B-----------------------------|-------------13-12-----------|
G--------------12-9-----------|---10-12-14--------14-12-14~-|
D----12-14-15~------10--------|-10--------------------------|
A-12-------------------10-12~-|-----------------------------|
E-----------------------------|-----------------------------|

e-----------------------|--------------------|-----------------|
B----15-17-18-15----17~-|-15-13-15-------13~-|-----------------|
G-14-------------14-----|----------14--------|----------12-----|
D-----------------------|-------------15-----|-12-14-15~---12~-|
A-----------------------|--------------------|-----------------|
E-----------------------|--------------------|-----------------|

e------------------|--------------------|------------|
B------------------|----------10-8-10---|------------|
G---7-10-9---------|-7----7-10--------9-|-5---5-7---9|
D-7--------10----7-|---10---------------|---7--------|
A-------------10---|--------------------|------------|
E------------------|--------------------|------------|

e------------------------------------------------------|
B----------13-11-13--16-15--11-------------------------|
G-10-12-13---------------------10-12-13-10-10-8-10--12-|
D------------------------------------------------------|
A------------------------------------------------------|
E------------------------------------------------------|

e-------------------------|----------------------------|----------------------|
B-------------11-8--------|-------------16-15-13-11-13-|----------------------|
G----10-12-13------8------|----13-15-17----------------|----10-12-13-10----12-|
D-10-----------------8-10-|-15-------------------------|-10-------------10----|
A-------------------------|----------------------------|----------------------|
E-------------------------|----------------------------|----------------------|

e----------------|----------------|
B----------------|----------11----|
G-10-8-10------8-|-10-12-13----10-|
D---------10-6---|----------------|
A----------------|----------------|
E----------------|----------------|

e--------------------------|----------------------------|
B-------------11-8---------|-------------16-15-13-11-13-|
G----10-12-13------8-------|----13-15-17----------------|
D-10-----------------8-10--|-13-------------------------|
A--------------------------|----------------------------|
E--------------------------|----------------------------|
Login or Register to remove this ad.