Ads

Into the Wilderness (Wild Arms) Guitar Tab

Submitted: Dec 09, 2012 by Jack the Cow (Last updated: Dec 09, 2012)

5
Average: 5 (8 votes)
Download | Listen
Game: Wild Arms
Composer(s): Michiko Naruke
Style: Arrangement, Fingerstyle
Series: Wild Arms

AutoScroll: Slow | Medium | Fast
Game: Wild ARMS
Song: Into the Wilderness                               
Composed by Michiko Naruke

Transcribed by Jack the Cow
9/12/2012

Capo 5

     E  S E  S E  E  E  E  E     E  S E  S E  E  E  E  E   
E||------------3--L-----------|------------3--L-----------|
B||--1--1---------1--1--1--1--|--0--0---------0--0--0--0--|
G||--2--2----2----2--2--2--2--|--0--0----0----0--0--0--0--|
D||-------2-------------------|-------0-------------------|
A||--0------------------------|---------------------------|
E||---------------------------|--3------------------------|


  E  S E  S E  E  E  E  E     E  S E  S E  E  E  E  E   
------------3--L-----------|-------3--L----------------|
--1--1---------1--1--------|-------0--L-0--0--0--0--0--|
--2--2----2----2--2--2-----|--0---------0--0--0--0--0--|
-------2----------------2--|-----0----0----------------|
--0------------------0-----|---------------------------|
---------------------------|--3------------------------|


  E  S E  S E  E  S E  S E     E  S E  S E  E  S E  S E   
------------5-------3----7--|--8----7--------------------|
-------1--------------------|------------8-------0-------|
---------------0------------|-----------------------0----|
--3-------3-------0----0----|-----7----7-------0------0--|
-----3----------------------|--0-------------------------|
--1------------3------------|---------------3------------|


                                            ^            
  E  S E  S E  E  S E  S E     E  S E  S E  E  E  E  E   
------------5-------3----7--|--5------------------------|
-------1--------------------|--5---------------------0--|
---------------0------------|-------2--5-2--5-----2-----|
--3-------3-------0----0----|-----2---------2--2--------|
-----3----------------------|--0------------0-----------|
--1------------3------------|---------------------------|


  S  S E  E  E  S  S E  E  E     S  S E  E  E  S  S E  E  E   
------------------------------|------------------------------|
--1----L-----3--0----L--------|-------1-----1----------1--3--|
-------2-----2----------0-----|-------2-----2-------2--------|
--0h-2---------------0-----0--|--0h-2----------0h-2----------|
----------0-----0h-2----------|--0-------0-------------0-----|
------------------------3-----|------------------------------|


  S  S E  E  E  E  E  E  E     E  E  E  E  E  E  E  E   
--0----L-----3--2-----0-----|--0--------------0--5--7--|
-------1-----------3-----3--|-----0-----0--0-----0-----|
-------0-----------2-----2--|-----0-----0--0-----------|
----------------0-----------|--------------------------|
--2h-3----------------0-----|--------2-----------------|
----------3-----------------|--0-----------0-----------|


  E  E  E  E  E  E  E  E     S  S E  E  E  E  E  E  E   
--8--5--------7-----------|----------5--3--5--0--------|
-----------5-----0-----0--|-------0-----------------1--|
-----------5-----0-----0--|-------0-----------------0--|
--------------------------|----------------------------|
--0-----------2-----------|--0h-2----------------3-----|
--------0-----------3-----|----------3-----1-----------|


                                         ^            
  E  E  E  E  E  E  E  E     E  E  E  E  Q    S  E.   
--3-----------------------|--------------------------|
-----0-----0-----0-----0--|--1-----------1----1h-3---|
-----0-----0-----0--2-----|-----2-----2--2-----------|
--------------------------|-----3-----3--3-----------|
--------2-----------2-----|--------3-----3-----------|
--0-----------0-----------|--1-----------1-----------|


  S  S E  E  E  S  S E  E  E     S  S E  E  E  S  S E  E  E   
------------------------------|------------------------------|
-------1-----1-------1-----1--|-------1-----1-------------0--|
--2--L-------2-------2-----2--|-------2-----2----------2-----|
--0h-2----------0h-2----------|--0h-2----------0h-2-2--------|
----------0-------------0-----|----------0-------------0-----|
------------------------------|------------------------------|


  E  E  E  E  E  E  E  E     S  S E  E  E  E  E  E  E   
-----------0--------------|----------------------------|
--1-----------3-----0-----|-------1--------1--------0--|
-----2-----------0-----0--|--2--L-------2--2-----2-----|
-----3-----3-----0--------|--0h-2-------2-----2--------|
--------3-----------------|----------0-----0--L--0-----|
--1-----------3-----------|-------------0--L-----------|


  E  E  E  E  E  E  E  E     E  E  E  E  E  E  E  E   
--------------------------|--------------------------|
--1--------3--0-----------|--------0-----1-----1--3--|
--------2-----------0-----|--2--------------2--------|
-----2-----------0-----0--|-----2-----2--------------|
--0-----------2-----------|--0-----------0-----------|
--------0-----------3-----|--------0-----------0-----|


  E  E  E  E  E  E  E  E     E  E  E  E  E  E  E  E   
--0--------3--2-----0-----|--0--------------0--5--7--|
-----1-----------3-----3--|-----0-----3--0-----0-----|
-----0-----------------2--|-----0--------------------|
--------------0-----------|--------------------------|
--3-----------------0-----|--------2-----------------|
--------3-----------------|--0-----------0-----------|


  E  E  E  E  E  E  E  E     E  E  E  E  E  E  E  E   
--8--5--------7-----------|--------5--3--5--0--------|
-----------5-----0-----0--|-----0-----------------1--|
-----------5-----0-----0--|-----0-----------------0--|
--------------------------|--------------------------|
--0-----------2-----------|--2-----------------3-----|
--------0-----------3-----|--------3-----1-----------|


  E  E  E  E  E  E  E  E     E  E  E  E  E  E  S  E.   
--3-----------------------|---------------------------|
-----0-----0-----0-----0--|--1-----------1-----1h-3---|
-----0-----0-----0--2-----|-----2-----2-----2---------|
--------------------------|-----3-----3-----3---------|
--------2-----------2-----|--------3------------------|
--0-----------0-----------|--1-----------1------------|


  E  E  E  E  E  E  Q       E  E  E  E  E  E  Q       E  E  E   E  Q    E  E   
-------------------------|-------------------------|-----------------------0--|
-----1-----1-------------|--1-----0----------------|--------------------1-----|
--2--------2--------2----|--------------0----------|--------2p--0--2----2-----|
--2--------------2-------|-----3-----3--------0----|--2------------2----------|
--0-----------0----------|-----------------2--2----|--0-----0------0----0-----|
--------0-----------0----|--1-----1-----3----------|-----0--------------------|


  E  E  E  Q    E  E  E     E  S S Q    E  S S Q       E  S S E  E  Q    E  E   
--------0----------------|--------------------------|--------------------3--1--|
--3--------0-------------|--------------0------0----|--0------1--3--4----------|
--0--------0----0-----0--|--2------2----0----0------|--0----0-------3----------|
-----0-------------2-----|--3----3---------0--------|-----0---------1----------|
-------------------------|-----3--------------------|--------------------------|
--3----------------------|--1-----------3-----------|--3-----------------------|


  Q    E  Q    E  E  E     E  E  E  S S Q    E  E   
--3----6--5-------------|--------------------------|
--4------------6-----3--|--4--------------------1--|
------------------5-----|-----5-----5-5-5----3-----|
--1-------3-------3-----|---------------6----------|
------------------------|--------6-----------------|
------------------------|--4------------4-------1--|


              ^  ^ v ^  ^ v    ^  ^ v ^  ^ v ^            
  E  S S Q    E  S S E  S S    E  S S E  S S E  E  E  E   
----------------------------|----------------------------|
--L--1-1-1----1--1-1-1--1-1-|--3--3-3-3--3-3-3--------3--|
---------2----2--2-2-2--2-2-|--4--4-4-4--4-4-4-----5-----|
--------------3--3-3-3--3-3-|--5--5-5-5--5-5-5--5--------|
--------------3--3-3-3--3-3-|--5--5-5-5--5-5-5-----------|
--L------1----1--1-1-1--1-1-|--3--3-3-3--3-3-3-----------|


  E  E  E  E  E  E  E  E     E  E  E  E  E  E  E  E   
-----------1--------------|--------------------------|
--4-----------3-----------|--------------------4--6--|
--5-----5-----3-----3-----|--5-----5--------5--------|
--5--5--------3--3-----3--|--5--5--------------------|
--3-----------1-----------|--3-----------3-----------|
--------------------------|-----------3--------------|


  E  E  E  E  E  E  E  E     E  E  E  S S E  E  E  E   
--3--------6--1-----3--1--|--3--------3-3-3-----------|
--4-----------1--1--------|--3------------3-----1--3--|
--3-----3-----2-----------|--0-----0------0--0--------|
-----5--------------------|-----0---------------------|
--6-----------------------|---------------------------|
--------------1-----------|--3------------3-----------|


  E  E  E  E  E  E  E  E     E  E  E  E  E  E  E  E   
--------------------------|--------------------------|
--4-----------3-----------|--------1-----------------|
--5--5--------3-----3-----|-----------3--5-----------|
--5--------5--3--3--------|--------------6--6--------|
--3-----3-----1-----------|--1-----------6--------6--|
-----------------------1--|-----1--------4-----4-----|


  E  E  E  E  E  E  E  E     E  E  E  E  Q    Q     
--------------------------|------------------------|
-----------------------3--|--4-----------4----6----|
--3-----------3-----5-----|--5--------5------------|
--5--5-----------5--------|--------6---------------|
--5--------5--------5-----|-----6------------------|
--3-----3-----------------|--4---------------------|


  S  S E  E  E  S  S E  E  E     S  S E  E  E  S  S E  E  E   
------------------------------|------------------------------|
-------4-----4----------------|-------4-----4-------------3--|
-------5-----5-------3-----3--|-------5-----5----------5-----|
--3h-5---------------3-----3--|--3h-5---------------5--------|
----------3-----3h-5----------|----------3-----3h-5----------|
------------------------6-----|------------------------------|


  E  E  E  E  E  E  E  E     S  S E  E  E  S  S E  E  E   
-----------1--------------|------------------------------|
--4-----------3-----------|-------4-----4----------------|
-----5--------------3-----|-------5-----5-------3-----3--|
-----------------3-----3--|--3h-5---------------3-----3--|
--------3-----------------|----------3-----3h-5----------|
--------------------------|------------------------6-----|


  S  S E  E  E  S  S E  E  E     E  E  E  E  E  E  E  E   
------------------------------|--3--------6--5-----3-----|
-------4-----4----------4--6--|-----4-----------6-----6--|
-------5-----5-------5--------|--------3-----------------|
--3h-5------------------------|--------------------------|
----------3-----3h-5----------|--------------------------|
------------------------------|--------------------------|


  E  E  E  E  S  S E  E  E     S  S E  E  E  S  S E  E  E   
--3-------------------------|------------------------------|
-----4-----4----------------|-------4-----4----------------|
-----5-----5-------3-----3--|-------5-----5-------3-----3--|
-------------------3-----3--|--3h-5---------------3-----3--|
--------3-----3h-5----------|----------3-----3h-5----------|
----------------------6-----|------------------------6-----|


  ^                  
  W                  
-------------------||
-------------------||
--5----------------||
--5----------------||
--3----------------||
-------------------||




Duration Legend
---------------
W - whole
H - half
Q - quarter
E - 8th
S - 16th
T - 32nd
X - 64th
. - note dotted
|-n-|  - n-tuplets


Tablature Legend
----------------
L - tied note
h - hammer on
p - pull off
^ - brush up
v - brush down
Login or Register to remove this ad.

4 comments on Into the Wilderness

Fun tab

5

I like its western flavor.

Oo . .wow i learned the 2

5

Oo . .wow i learned the 2 guitar version ages ago.

really nice to have one for single guitar <3

Amazing

5

Thumbs up!

This is probably my favourite

5

This is probably my favourite tab on the site