Ads

Battle Demon (Wild Arms) Guitar Tab

Submitted: Jan 31, 2013 by Jack the Cow

5
Average: 5 (1 vote)
Download | Listen
Game: Wild Arms
Composer(s): Michiko Naruke
Style: Arrangement, Fingerstyle
Series: Wild Arms

AutoScroll: Slow | Medium | Fast
Game: Wild Arms
Song: Battle Demon (Boomerang Flash battle theme)                           
Composed by Michiko Naruke

Trascribed by Jack the Cow
30/1/2013

Capo 6

     E  E       Q    Q    Q       Q    Q    Q       Q    Q    Q     
E||--------||------------------|-----------------|-----------------|
B||--------||------------------|------------1----|--0--------------|
G||-----0--||*--2----2----0----|--2---------2----|--0----2----0----|
D||--2-----||*--2--------------|--2--------------|-------2----0----|
A||--------||---0--------------|--0---------0----|-----------------|
E||--0-----||------------------|-------0---------|--3--------------|


  Q    Q    E   E     E   E  Q    Q       Q    Q    Q       E   E  Q    Q     
-------------------|--0----------------|-----------------|-------------------|
------------1h--3--|--1-----------1----|--3----1----0----|-------------------|
--2---------2------|--0-----------0----|--0---------0----|--2-----------2----|
--2----------------|--2p--0-------2----|------------0----|--3p--2------------|
--0---------0------|---------3---------|-----------------|---------3---------|
-------0-----------|-------------------|--3--------------|--1-----------1----|


  H        E  E       H.              H.                H.             
------------------||---------------|-----------------|----------------|
--0---------------||--0------------|-----------------|--5~------------|
--0-----------0--*||--0------------|--2br------------|----------------|
--0--------2-----*||--0------------|-----------------|----------------|
------------------||---------------|--0--------------|--0-------------|
-----------0------||---------------|-----------------|----------------|


  Q    E   E  Q       Q    Q    Q       E   E  E   E  Q        H.            
--------------3----|-----------------|----------------------|---------------|
-------3h--5-------|--6----5----3----|--1h--3--1h--3--5~----|--L------------|
-------------------|-----------------|----------------------|---------------|
-------------------|-----------------|----------------------|---------------|
--0-----------L----|--0---------L----|--0-------------L-----|--0------------|
-------------------|-----------------|----------------------|---------------|


  H.              Q    E   E   E  E     Q     E  E  Q       H.             
---------------|---------------------|-------------------|----------------|
--L------------|---------------------|-------------------|--5~------------|
---------------|------------------0--|--2br---------L----|----------------|
---------------|-------2p--0h--2-----|--3-----3-----3----|--3-------------|
--0------------|--0------------------|-----------3-------|----------------|
---------------|---------------------|-------------------|----------------|


  Q    E   E  Q       Q    Q    Q       E   E  E   E  Q        H.            
--------------3----|-----------------|----------------------|---------------|
-------3h--5-------|--6----5----3----|--1h--3--1p--0--------|---------------|
--0----------------|-----------------|----------------2~----|--L------------|
-------------------|--0---------L----|----------------------|---------------|
-------------------|-----------------|--0-------------L-----|--0------------|
-------------------|-----------------|----------------------|---------------|


  H.              H.              E   E  E  E  E  E     E   E  E  E  E  E   
---------------|---------------|---------------------|---------------------|
---------------|---------------|---------------------|---------------------|
--L------------|--L------------|---------------------|---------------------|
---------------|---------------|--0h--2--2--2--2--2--|--0h--2--2--2--2--2--|
--0------------|--0------------|--2---------------L--|--2---------------L--|
---------------|---------------|--0---------------L--|--0---------------L--|


  Q    Q    Q       E   E  E  E  E  E     E   E  E  E  E  E     Q    Q    Q     
-----------------|---------------------|---------------------|------------0----|
-----------------|---------------------|---------------------|-------0---------|
--1----2----1----|---------------------|---------------------|--1--------------|
--2----2----2----|--0h--2--2--2--2--2--|--0h--2--2--2--2--2--|--2---------2----|
-----------------|--2---------------L--|--2---------------L--|-------2---------|
--0--------------|--0---------------L--|--0---------------L--|--0--------------|


  H           H           Q    Q       Q    Q       Q    Q       Q    Q     
-----------|--0--------|-------0----|--3----1----|--0---------|------------|
-----------|-----------|--3---------|------------|-------3----|--1----3----|
--2--------|-----------|------------|------------|------------|------------|
--2--------|--2--------|--2----L----|--2----L----|--2----L----|--2----L----|
-----------|-----------|------------|------------|------------|------------|
-----------|-----------|------------|------------|------------|------------|

							     Da capo

  H           H           H           H            H           H         
--0--------|--0--------|--0--------|--0---------|--0--------|--0--------|
--0--------|--0--------|--0--------|--4b--------|-----------|--L--------|
-----------|-----------|-----------|------------|-----------|-----------|
--2--------|-----------|-----------|------------|-----------|-----------|
-----------|-----------|-----------|------------|-----------|-----------|
-----------|-----------|-----------|------------|-----------|-----------|


  ^                  
  W                  
--0----------------||
--0----------------||
--1----------------||
--2----------------||
--2----------------||
--0----------------||




Duration Legend
---------------
W - whole
H - half
Q - quarter
E - 8th
S - 16th
T - 32nd
X - 64th
. - note dotted
|-n-|  - n-tuplets


Tablature Legend
----------------
L - tied note
x - dead note
g - grace note
(n) - ghost note
> - accentuded note
NH - natural harmonic
AH - artificial harmonic
TH - tapped harmonic
SH - semi harmonic
PH - pitch harmonic
h - hammer on
p - pull off
b - bend
br - bendRelease
pb - preBend
pbr - preBendRelease
brb - bendReleaseBend
\n/ - tremolo bar dip
\n - tremolo bar dive
-/n - tremolo bar Release up
/n\ - tremolo bar inverted dip
/n - tremolo bar return
-\n - tremolo bar Release down
S - shift slide
s - legato slide
/ -  slide into from below or out of upwards
\ -  slide into from above or out of downwards
~ - vibrato
W - wide vibrato
tr - trill
TP - tremolo picking
T - tapping
S - slap
P - pop
< - fade in
^ - brush up
v - brush down
Login or Register to remove this ad.