Ads

Bowling Game Finished (Wii Sports) Bass/Guitar Tab

Submitted: Jun 20, 2009 by hslesperance (Last updated: Feb 13, 2011)

5
Average: 5 (1 vote)
Download | Listen
Game: Wii Sports
Composer(s): Unknown
Style: 2 or more instruments, Transcription

AutoScroll: Slow | Medium | Fast
Bowling Game Finished
Wii Sports
Composer Unknown
Tabbed by hslesperance
6/20/09

Standard Tuning


Guitar 1

e--------------------------2-----------------------------
B---2-3-5--2-3-5----2-3-5-----2p0---------2-3-5--2-3-5---
G----------------------------------2---------------------
D--------------------------------------------------------
A--------------------------------------------------------
E--------------------------------------------------------

e----------4h5--4--0-------------------------------------
B---2-3-5-------------2p0---------------0-3--2--0--------
G--------------------------2-2--------2------------2-2---
D--------------------------------------------------------
A--------------------------------------------------------
E--------------------------------------------------------


Guitar 2

    0:05                         0:10
e---5----------------------------5--------2--------2-----
B---5----------------------------5--------3-----3--------
G---4----------------------------4--------2--2-----------
D--------------------------------------------------------
A--------------------------------------------------------
E--------------------------------------------------------
    0:15
e---0---7--9--------0---7--9-----------------------------
B--------------------------------------------------------
G--------------------------------------------------------
D--------------------------------------------------------
A--------------------------------------------------------
E--------------------------------------------------------


Bass

G--------------------------------------------------------
D--------------------------------------------------------
A---0--0--0--0--0--0--0--0--0--0--0--0--0--0-------------
E---------------------------------------------4----------

G--------------------------------------------------------
D----------------------------------------4----2----------
A--------------------------------------------------------
E---2--2--2--2--2--2--2--2--2--2--2--2-------------------

G--------------------------------------------------------
D---0--0--0--0--0--0--0--0--2--2--2--2--2--2--2--2-------
A--------------------------------------------------------
E--------------------------------------------------------

G--------------------------------------------------------
D---------------------------------------------2----------
A---0--0--0--0--0--0--0--0--2--2--2--2--2--2-------------
E--------------------------------------------------------

h - hammer on
p - pull off
Login or Register to remove this ad.