Ads

Wii Shop Channel (Wii Channel) Guitar Tab

Submitted: Feb 02, 2010 by hslesperance (Last updated: Mar 30, 2014)

5
Average: 5 (1 vote)
Download | Listen
Game: Wii Channel
Composer(s): Kazumi Totaka
Style: Transcription

AutoScroll: Slow | Medium | Fast
Wii Shop Channel
Wii Channel
Composed by Kazumi Totaka
Tabbed by hslesperance
11/4/08

Standard Tuning

e---10-10-10-10-10--10-10-10-10-10--10-10-10-10-10---
B----------------------------------------------------
G----------------------------------------------------
D----------------------------------------------------
A----------------------------------------------------
E----------------------------------------------------

e----------------------------------------------------
B---10-10--8-8--7-7---------10-10--8-8--7-7----------
G--------------------9-9---------------------9-9-----
D----------------------------------------------------
A----------------------------------------------------
E----------------------------------------------------

e---10-10--8-8--7-7-----------10-10--8-8--6-6--------
B--------------------10-10---------------------10-10-
G----------------------------------------------------
D----------------------------------------------------
A----------------------------------------------------
E----------------------------------------------------

e---------------------------7----8----7-------7--6---
B---7--10------------7-8-10--------------------------
G---------9------8-9---------------------9-9---------
D----------------------------------------------------
A----------------------------------------------------
E----------------------------------------------------

e---------------------------------12-12-11-11-11-----
B-----------11--10-----------------------------------
G---8--8---------------------------------------------
D----------------------------------------------------
A----------------------------------------------------
E----------------------------------------------------

e----------------------------------------------------
B----------------------------------------------------
G----------------------------------------------------
D---4-4--2-2--1-1---------4-4--2-2--1-1--------------
A------------------4-4-------------------4-4---------
E----------------------------------------------------

e----------------------------------------------------
B----------------------------------------------------
G----------------------------------------------------
D---4-4--2-2--0-0---------2-2--0-0-------------------
A------------------4-4--------------4-4--2-2---------
E----------------------------------------------------

e--------7-------------------------------------------
B-------------------------------0-2--------1---------
G---1-1---------------------1-2----------------------
D-----------4--------4--3h4--------------------------
A----------------------------------------------------
E----------------------------------------------------

e----------------------------------------------------
B---0-0-0-0-0----0-0-0-0-0----0-0-0-0-0----0-0-0-0-0-
G----------------------------------------------------
D----------------------------------------------------
A----------------------------------------------------
E----------------------------------------------------

h - hammer on
Login or Register to remove this ad.

1 comment on Wii Shop Channel

Good

5

Very nice and Super easy too!