Ads

Dolphin Park (Wave Race 64) Guitar Tab

Submitted: Apr 02, 2011 by musenji

5
Average: 5 (2 votes)
Download | Listen
Game: Wave Race 64
Composer(s): Kazumi Totaka
Style: Arrangement, Fingerstyle

AutoScroll: Slow | Medium | Fast
Wave Race 64
Dolphin Park
composed by Kazumi Tokama
tabbed by musenji


Standard tuning.

I add embellishments to fill the last two lines, but it's a little
different every time, so I'm just showing the core notes.



------0--0-------------|-2------------------|-0--0--2-4--2--0h2-|-2---------------|
-------------------4h5-|----4---2--0----2h4-|-------------------|-----------------|
-----------------------|--------------------|-------------------|-----------------|
-----------------------|--------------------|-------------------|-----------------|
-4--4------------------|-2----0-------------|-4--4----2--2------|-1--1----0--0----|
------------2--2-------|-----------4--------|-------------------|-----------------|


|-0----------------|--------------------0-|------4--2---------|------------------|
|----0--7----------|-7--9---10--9----7----|-------------------|------------------|
|--------------8h9-|----------------------|-------------------|------------------|
|------------------|----------------------|-------------------|------------------|
|------------------|----------------------|---------2---2-----|-2--2-----2--2----|
|-4-----6----------|-8----8-----9--9------|-\2----------------|------------------|


|------0--0-----------|-2------------------|-0--0--2-4--2--0h2-|-2---------------|
|-----------------4h5-|----4---2--0----2h4-|-------------------|-----------------|
|---------------------|--------------------|-------------------|-----------------|
|---------------------|--------------------|-------------------|-----------------|
|-4--4----------------|-2----0-------------|-2--2----1--1------|-0--0--0h2-3-----|
|-----------2--2------|-----------4--------|-------------------|-----------------|


|-5--------4-2-|-2-h4-0----------|---------------|----------0--5--4--0--2--|
|--------------|-------------4-2-|-2-h4-0--------|-------2-----------------|
|--------------|-----------------|---------------|----2--------------------|
|--------------|-----------------|---------------|-------------------------|
|--------------|-0------0--------|--------4------|-------------2-----2-----|
|-2-----0------|-----------------|-4-------------|-2-----2-----------------|


|-0---------------|-----------------|------------------|------------------|
|-----------------|-----------------|------------------|------------------|
|-----------------|-----------------|------------------|------------------|
|-----------------|-----------------|------------------|------------------|
|-7--5------------|-7--5------------|-7--5-------------|-7--5-------------|
|-----------------|-----------------|------------------|------------------|


|-----------------|-----------------|------------------|------------------|
|-----------------|-----------------|------------------|-5--3-------------|
|-----------------|-----------------|-4--2-------------|-4--2-------------|
|-6--4------------|-6--4------------|-6--4-------------|-6--4-------------|
|-7--5------------|-7--5------------|-7--5-------------|-7--5-------------|
|-----------------|-----------------|------------------|------------------|
Login or Register to remove this ad.