Ads

Dou Kangaetemo Watashi wa Warukunai (Watashi ga Motenai no wa dō Kangaetemo Omaera ga Warui) Guitar Tab

Submitted: Jan 25, 2016 by JordanVS (Last updated: Feb 27, 2016)

5
Average: 5 (1 vote)
Download | Listen
Game: Watashi ga Motenai no wa dō Kangaetemo Omaera ga Warui
Composer(s): Izumi Kitta
Style: Arrangement, Fingerstyle

AutoScroll: Slow | Medium | Fast
Dou Kangaetemo Watashi wa Warukunai                                                               
Watashi ga Motenai no wa Dou Kangaetemo Omaera ga Warui!
Ending Theme - WataMote 
Izumi Kitta
Music by Koshiro Fukumoto, Jinta Hashi 
JordanVS


*Capo on the 3rd fret
*Tempo : 145


     E  E  E  E  Q    E  E     E  E  E  E  Q    E  E     E  E  E  E  Q    E  E     Q    E  E  Q    E  E     E  E  E  E  E  E  E  E   
E||-----0--0--1--3-------0--|--0--0--0--1--3----------|-----0--0--1--3----0--1--|--3---------------5--5--|--3--------L-----0--1--3--|
B||-------------------------|-------------------------|-------------------------|------------------------|--------------1-----------|
G||-------------------------|-------------------------|--0-----0-----0----0-----|--2----2----------------|-----0-----0--------------|
D||--3-----3-----3----3-----|--2-----2-----2----2-----|-------------------------|------------------------|--3-----3-----------------|
A||-------------------------|-------------------------|-------------------------|------------------------|--------------------------|
E||-------------------------|-------------------------|-------------------------|------------------------|--------------------------|


  E  E  E  E  E  S  S  S S S  S    E  E   E  E  E  E  E  E     E  E  E  E  E  E  S  S  S S    Q    E  E  Q    E  E     E  E  E  E  Q    Q     
--1--0-----------0h-1p-0--------|---------------------------|------------------------------|------------------------|--------------0---------|
--------1----------------1------|------------------0--3--1--|--L-----------------0h-1p-0---|--1----------1----------|--------1--3------------|
-----------0---------------2p-1-|--0------------0-----------|-----0--------0-------------0-|-------2--0-------2--0--|--0--2------------------|
--2-----------2-----------------|--0---------0--------------|--------0--------0------------|------------------------|------------------------|
--------------------------------|-----2h--3-----------------|--0--------0------------------|------------------------|------------------------|
--------------------------------|---------------------------|------------------------------|------------------------|------------------------|


  E  E  E  E  Q    E  E     E  E  E  E  Q    Q       Q    E  E  Q    E  E     E  E  E  E  E  E  Q       Q    Q    E  E  E  E     E  E  Q    E  S  S  S S E   
-------------------------|--0--1--0---------------|------------------------|--------------0-----5----|--3---------------------|-----------------------------|
--1--1--------1----------|-----------3--1---------|--1----------1----------|--------1--3-------------|------------0--0--3--3--|--L--1--1-------0h-1p-0------|
--------2--0-------2--0--|------------------------|-------2--0-------2--0--|--0--2--------------5----|--4---------------------|------------------------0----|
-------------------------|------------------------|------------------------|-------------------------|------------2--2--3--3--|--L--2--2-----------------2--|
-------------------------|------------------------|------------------------|-------------------------|------------------------|-----------------------------|
-------------------------|------------------------|------------------------|-------------------------|------------------------|-----------------------------|


                                       ^                                                 ^    ^  ^                                          ^    ^     
  Q    E  E  Q    E  E     E  E  E  E  Q    Q       Q    E  E  Q    E  E     E  E  E  E  Q    E  E     Q    E  E  Q    E  E     E  E  E  E  Q    Q     
------------------------|--------------0---------|------------------------|--0--1--0----------------|------------------------|--------------0----5----|
--1----------1----------|--------1--3--1---------|--1----------1----------|-----------3--1----------|--1----------1----------|--------1--3--1----5----|
-------2--0-------2--0--|--0--2--------0---------|-------2--0-------2--0--|--------------2----------|-------2--0-------2--0--|--0--2--------0----5----|
------------------------|------------------------|------------------------|--------------2----x--x--|------------------------|------------------------|
------------------------|------------------------|------------------------|--0-----0-----0----x--x--|------------------------|------------------------|
--1----1-----1----1-----|--0-----0-----0----0----|--3----3-----3----3-----|-------------------x--x--|--1----1-----1----1-----|--0-----0-----0----0----|


  ^                                      ^                                                                                              
  E  E  E  E  E  E  E  E     E  E  E  E  Q    Q       E  E  E  E  S S  S S S S E     E  E  E  E  Q    E  E     E  E  E  E  E  E  E  E   
--3-----------3-----3-----|--------------5---------|-----------0----1p-0-------0--|--L--1--0----------------|-----------0--------0--3--|
--3--------5-----5-----5--|--8--5--8-----5---------|-----3---------------1-----0--|--L--------3--1----------|-----3-----------1-----3--|
--4--------4--L-----------|--------------5---------|-----------------------0------|--------------2----2--0--|--L-----------0--------0--|
--------5-----------------|------------------------|--0-----2-----3----------3-2--|--L-----2----------------|--0-----2-----------------|
-----5--------------------|-----------7--L---------|------------------------------|-------------------------|--------------------------|
--3-----------------------|--5---------------------|------------------------------|-------------------------|--------------------------|


                                                                                                                    ^  ^       ^     ^                       
  E  E  E  E  Q    E  E     E  E  E  E  E  S E  S E     E  E  E  E  Q    E  E     Q    E  E  E  E  E  E     Q    E  E  Q    E  E     Q    E  Q     E  E  E   
--L--3--1--1--0----------|-----------0------------0--|--L--1--0----------------|----------------0-----3--|--L-------3--3-------3--|--3-------------0--3--0--|
--L----------------3--1--|--L--3------------------0--|--L--------3--1----------|----------1--3-----1--3--|--L-------3--3-------3--|--3----------------------|
--L-----0-----0----0-----|-------------------0--L----|--------------2----2--0--|--L----0--------------0--|-------x--0--0----x--0--|--0----x-----------------|
-------------------------|--0-----2-----3--L------2--|--L-----2----------------|--0----2-----3-----------|-------x--0--0----x--0--|--0----x--5\-------------|
-------------------------|---------------------------|-------------------------|-------------------------|------------------------|-------------------------|
-------------------------|---------------------------|-------------------------|-------------------------|---------------------3--|--3----------------------|


                                                               ^          ^             ^                                                     
   E   E  E  E   E   E  E  E      E   E  E  E   Q     E  E     Q    E  E  Q    E  E     Q    Q    E  E  E  E      E   E  E  E   E   E  E  E   
---3---0--3--0---3---0--3--0--|---3---0--3--0---5-----0--1--|--3----0--1--3----0--1--|--3------------0--3--0--|---3---0--3--0---3---0--3--0--|
----------------(0)--------L--|-----------------------------|--3-------L--0-------L--|--1---------------------|----------------(0)--------L--|
--(2)--------L----------------|--(0)--------L--(5)----------|--2-------L--0-------L--|--0---------0-----------|--(2)--------L----------------|
------------------------------|-----------------------------|--0----0----------------|--2---------------------|------------------------------|
------------------------------|-----------------0-----0-----|------------------------|--3----3----------------|------------------------------|
---1------1------3------3-----|---0------0------------------|-------------3----3-----|------------------------|---1------1------3------3-----|


                 ^                                                                                                                           
   E   E  E  E   Q     Q       Q    Q    Q    E  E     H        E   E   E   E      E   E  E  E   E   E  E  E      E   E  E  E   Q     E  E   
---3---0--3--0---5----------|--5----5----3----3--0--|--3--------5p--0h--3p--0--|---3---0--3--0---3---0--3--0--|---3---0--3--0---5-----0--1--|
-----------------5----------|-----------------------|--------------------------|----------------(0)--------L--|-----------------------------|
--(0)--------L--(5)---------|--5----5----4----4--0--|--4-----------------------|--(2)--------L----------------|--(0)--------L--(5)----------|
----------------------------|--0----0----2----2-----|--------------------------|------------------------------|-----------------------------|
-----------------0-----0----|-----------------------|-----------0--------------|------------------------------|-----------------0-----0-----|
---0------0-----------------|-----------------------|--3-----------------------|---1------1------3------3-----|---0------0------------------|


  ^          ^             ^                                                                      ^                                     ^        ^          
  Q    E  E  Q    E  E     Q    Q    E  E  E  E      E   E  E  E   E   E  E  E      E   E  E  E   Q     Q       Q    Q    Q    E  E     H        E  Q.      
--3----0--1--3----0--1--|--3------------0--3--0--|---3---0--3--0---3---0--3--0--|---3---0--3--0---5----------|--5----5----3----3--0--|--3--------5---------|
--3-------L--0-------L--|--1---------------------|----------------(0)--------L--|-----------------5----------|-----------------------|--3--------5---------|
--2-------L--0-------L--|--0---------0-----------|--(2)--------L----------------|--(0)--------L--(5)---------|--5----5----4----4--0--|--4--------5---------|
--0----0----------------|--2---------------------|------------------------------|----------------------------|--0----0----2----2-----|---------------------|
------------------------|--3----3----------------|------------------------------|-----------------0-----0----|-----------------------|-----------0---------|
-------------3----3-----|------------------------|---1------1------3------3-----|---0------0-----------------|-----------------------|--3------------------|


  E  E  E  E  Q    E  E     E  E  E  E  Q    Q       E  E  E  E  Q    E  E     E  E  E  E  E  E  E  E     H.           Q        H        H          
-----0--0--1--3-------0--|--0--0--0--1--3---------|-----0--0--1--3----0--1--|--3-----------------5--5--|---------------------|--------------------||
--1----------------------|--1---------------------|-------------------------|--1-----------------------|--8------------L\----|--L-----------------||
-------------------------|------------------------|--0-----------0----------|--2--2--2--2--2-----5--5--|--5------------L\----|--L-----------------||
--3----------------------|--2---------------------|-------------------------|--------------------------|---------------------|--------------------||
-------------------------|------------------------|-------------------------|--------------------------|---------------------|--------------------||
-------------------------|------------------------|-------------------------|--------------------------|---------------------|--------------------||




Duration Legend
---------------
W - whole
H - half
Q - quarter
E - 8th
S - 16th
T - 32nd
. - note dotted


Tablature Legend
----------------
L - tied note
(n) - ghost note
h - hammer on
p - pull off
/ -  slide into from below or out of upwards
\ -  slide into from above or out of downwards
^ - brush up
v - brush down
Login or Register to remove this ad.

1 comment on Dou Kangaetemo Watashi wa Warukunai

Thanks

5

Wha-what. How in the world did I miss this tab?! My favorite manga has a tab now and I didn't even know. Thanks a ton dude.