Login or Register to remove this ad.

Track 4 (Warlords IV: Heroes of Etheria) Guitar Tab

Submitted: Jan 02, 2011 by Bhael (Last updated: Apr 12, 2011)

4.666665
Average: 4.7 (3 votes)
Download | Listen
Game: Warlords IV: Heroes of Etheria
Composer(s): Steve Fawkner
Style: Arrangement, Fingerstyle, Natural harmonics

Click here for a video example.

AutoScroll: Slow | Medium | Fast
                                    Track 4            
                        Warlords IV: Heroes of Etheria                         
                                 Steve Fawkner

Track 1 (Capo 3)



     Q    E  Q    E     Q.     E  Q       E.  E.  Q.        H.            
E||----------0----1--|--0--------------|-----------------|---------------|
B||--1----3----------|---------3--1----|--1--------------|---------------|
G||------------------|-----------------|----------2------|--L------------|
D||------------------|-----------------|------2----------|---------------|
A||--0---------------|-----------------|--0--------------|---------------|
E||------------------|-----------------|-----------------|---------------|


  E.  H        S    Q.     Q.        H.              H.            
--0--------------|----------------|---------------|---------------|
------3--------L-|--L------1------|--0------------|--L------------|
-----------------|----------------|---------------|---------------|
-----------------|----------------|---------------|---------------|
--0--------------|----------------|--0------------|--L------------|
-----------------|----------------|---------------|---------------|


  Q    E  Q    E     Q.     E  Q       E.  E.  Q.        Q.     E.  E.   
----------0----1--|--0--------------|-----------------|-----------------|
--1----3----------|---------3--1----|--1--------------|-------------0---|
------------------|-----------------|----------2------|--L------2-------|
------------------|-----------------|------2----------|-----------------|
--0---------------|-----------------|--0--------------|-----------------|
------------------|-----------------|-----------------|-----------------|


  E  E  H        E  E     E  E  H        E  E     E  E  H.            
-----------------------|-----------------------|--0------------------|
--1--------------0--1--|--3--------------1--3--|---------------------|
--------2--------------|--------0--------------|---------------------|
-----2-----------------|-----0-----------------|--------3------------|
--0--------------------|-----------------------|-----3---------------|
-----------------------|--3--------------------|--1------------------|


  E  E  H        E  E     E  E  H        E  E     E  E  H        E  E   
-----------------------|-----------------------|-----------------------|
--------------------0--|--1--------------3--1--|--0--------------1--0--|
-----------------2-----|--------2--------------|--------0--------------|
--------3--------------|-----2-----------------|-----0-----------------|
-----3-----------------|--0--------------------|-----------------------|
--1--------------------|-----------------------|--3--------------------|


  E  E  H.              E  E  H        E  E     E  E  H        E  E   
---------------------|-----------------5-----|--0--------------3--0--|
---------------------|--------------------6--|-----------------------|
--2------------------|-----------------------|--------2--------------|
--------3------------|--------3--------------|-----2-----------------|
-----3---------------|-----3-----------------|--0--------------------|
--1------------------|--1--------------------|-----------------------|


                                                     ^                   
  E  E  H        E  E     E  E  E  S S E  E  Q       H.           E  E   
-----------------------|--------------------------|---------------------|
--3-----------------0--|--1--------0---0----------|---------------1--0--|
--------0--------2-----|-------------2-------0----|--2------------------|
-----0-----------------|--------3---------0-------|--2------------------|
-----------------------|-----3--------------------|--0------------------|
--3--------------------|--1------------3----------|---------------------|


  E  E  H        E  E     E  E  H        Q       E  E  H        E  E   
-----------------------|----------------------|-----------------------|
-----------------0--1--|--0-------------------|--------------------0--|
--2--------------------|-----------------0----|--2--------------2-----|
--------3--------------|--------0-------------|--------3--------------|
-----3-----------------|-----2----------------|-----3-----------------|
--1--------------------|--3-------------------|--1--------------------|


  E  E  E  E  E  E  E  E     E  E  E  E  E  E  E  E   
--0-----------------------|--------------------------|
--1-----------------0-----|--3-----------------------|
--------2-----2--------2--|--4--------------------0--|
-----2-----2-----2--------|--------5-----5-----7-----|
--0-----------------------|-----5-----5-----5--------|
--------------------------|--3-----------------------|


  E  E  E  E  E  E  E  E     E  E  E  E  E  E  E  E   
--------------------------|--------------------------|
--0-----------1-----------|-----------------------0--|
--2--------2-----2--------|--------------2-----2-----|
--------3-----------3-----|--------3-----------------|
-----3-----------------3--|-----3-----3-----3--------|
--1-----------------------|--1-----------------------|


  E  E  E  E  E  E  E  E     E  E  E  E  E  E  E  E   
--0-----------------------|-----------------------1--|
--1-----------------0--1--|--3-----------------1-----|
--------2-----2-----------|--0-----0-----0-----------|
-----2-----2-----2--------|--0--0-----0-----0--------|
--0-----------------------|--------------------------|
--------------------------|--3-----------------------|


  E  E  E  E  E  E  E  E     E  E  E  E  Q    E  E   
--0-----------------------|-------------------5-----|
--1-----------------------|--------------1-------6--|
--2-----------------------|-----------2-------------|
--------3-----3-----3-----|--------3----------------|
-----3-----3-----3-----3--|-----3-------------------|
--1-----------------------|--1----------------------|


    E  E  E  E  E  E  E  E     E  E  E  E  E  E  E  E   
|---0-----------------3--0--|--------------------------|
|---1-----------------------|--3--------------------0--|
|*--2-----2-----2-----------|-----------0--------2-----|
|*-----2-----2-----2--------|--------0-----0-----------|
|---0-----------------------|-----2-----------2--------|
|---------------------------|--3-----------------------|


  ^                                                     
  E  E  E  E  E  E  E  E     E  E  E  E  E  E  E  E     
--------------------------|--------------------5------||
--1-----------------0-----|--0-----3--------------6---||
--2--------2-----------2--|--------------------------*||
--3-----3-----3-----------|-----0-----0-----0--------*||
-----3-----------3--------|---------------------------||
--1-----------------------|--3-----------3------------||


  E  E  E  E  Q.     S S    E  E  E  E  E  E  E  S  S  
-------------------------|----------------------------|
--1------------------0---|--3-------------------------|
-----------------------2-|--4--------------------2p-0-|
--------3-----3----------|--------5-----5-----5-------|
-----3-----3-------------|-----5-----5-----5----------|
--1----------------------|--3-------------------------|


  ^                                                          
  Q.       S    S    E.    S    Q         W                  
---------<>0h-<>1p-<>0---------------|---------------------||
-------------------------<>3p-<>1----|--<>0----------------||
--2----------------------------------|---------------------||
--2----------------------------------|---------------------||
--0----------------------------------|---------------------||
-------------------------------------|---------------------||




Duration Legend
---------------
W - whole
H - half
Q - quarter
E - 8th
S - 16th
T - 32nd
X - 64th
. - note dotted
|-n-|  - n-tuplets


Tablature Legend
----------------
L - tied note
x - dead note
g - grace note
(n) - ghost note
> - accentuded note
NH - natural harmonic
AH - artificial harmonic
TH - tapped harmonic
SH - semi harmonic
PH - pitch harmonic
h - hammer on
p - pull off
b - bend
br - bendRelease
pb - preBend
pbr - preBendRelease
brb - bendReleaseBend
\n/ - tremolo bar dip
\n - tremolo bar dive
-/n - tremolo bar Release up
/n\ - tremolo bar inverted dip
/n - tremolo bar return
-\n - tremolo bar Release down
S - shift slide
s - legato slide
/ -  slide into from below or out of upwards
\ -  slide into from above or out of downwards
~ - vibrato
W - wide vibrato
tr - trill
TP - tremolo picking
T - tapping
S - slap
P - pop
< - fade in
^ - brush up
v - brush down
Login or Register to remove this ad.

4 comments on Track 4

thankies!

5

Awesome!! I love the music in the warlords games and to be able to play it is that much better! Thanks for putting this up and I really hope to see some more of Fawkner's music on here :D

Your welcome! I also did a

Your welcome! I also did a recording if you want to check it out. I hope to do Warlords music in the future.

4 stars !! Thank you for the

4

4 stars !!
Thank you for the share

Love it.

5

It's perfect! I'm really happy someone else played this game or at least heard the music... It's so underrated. :D