Ads

Ashley's Theme (WarioWare: Touched!) Guitar Tab

Submitted: May 22, 2017 by tomorning

5
Average: 5 (3 votes)
Download | Listen
Game: WarioWare: Touched!
Composer(s): Masaru Tajima, Yasuhisa Baba, Masanobu Matsunaga, Kenichi Nishimaki
Style: Arrangement, Fingerstyle, Natural harmonics

AutoScroll: Slow | Medium | Fast
May.21 /2017 (first post May.6)

                                     Ashley's Theme
                                 (アシュリーのテーマ)
               ~ from game "さわる メイドインワリオ"  ( Wario Ware : Touched! )~

Music by Masaru Tajima ( 田島 賢 )
fingerstyle arranged by to*morning


Standard Tuning, EADGBE)

     swing fee- or dotted 8-note             
     Allegro Moderato ( Q = 120 )
                                                       
         >         >            >         >               >          >      
     Q   Q    Q    Q       Q    Q    Q    Q         E  E  E  E  Q    E  E   
E||---------------------|----------------------||--------------------------|
B||------1---------4----|-------1---------3----||------------1--0----1--3--|
G||------2---------2----|-------2---------1----||*--2-----2----------2-----|
D||------2---------3----|-------2---------2----||*-----2--2----------1-----|
A||--0------------------|--0-------------------||---0----------------------|
E||-----------1---------|------------0---------||---------------1----------|


                                                                                    1.________________________
        >                           >             >              >       NH                  >          >      
  E  E  E  E  Q     E   E     E  E  E  E  E   E   E  E      Q    Q       Q    E  E     E  E  E  E  Q    E  E   
------------------------0--|--5--5--7--7--8--10--12--8--|--11----7------<12>--------|-----------0-------0--1--|
--1--0-----0-------(3)-----|--------5-------------8-----|--------7------------0-----|--1-----1-----3----1-----|
--------2-----1----(1)-----|--------5-------------------|---------------------7--0--|-----0--0----------2-----|
--------2-----------2------|----------------------8-----|---------------------6-----|-------------------------|
--0------------------------|--0-------------------------|---------------------------|--3-----------3----------|
--------------0------------|--------------8-------------|---7------------0----------|-------------------------|


                                                                                    2.________________________
        >          >              >            >                        >                    >          >      
                                                             |---3---|                                         
  E  E  E  E  Q    E  E     E  E  E  E  E  E   E  E     Q    E   E   E  Q    Q         E  E  E  E  Q    E  E   
--0--------0-------------|--2--4--5--7--9--7------7--|--9---------------0----------||-----------0-------0--1--|
-----3--1-----3----0--2--|--------2-----------10-----|-----------------------------||--1-----1-----3----1-----|
--------0----------1-----|--------2------------8-----|-------6h--7h--8------------*||-----0--0----------2-----|
-------------------------|---------------------7-----|----------------------------*||-------------------------|
--3-----------2----------|--------------9------------|-----------------------------||--3-----------3----------|
-------------------0-----|--2------------------------|--9---------------7----0-----||-------------------------|


        >                         >                        >    >                                   
  E  E  E  E  Q    E  E     E  E  E  E  Q    E  E     Q    Q    Q    E  E     Q    Q    Q    E  E   
--0--------0----------0--|--1--3--5--7--8----7--8--|--5--------------------|-----------------------|
-----3--1-----3----------|--------4-----0----------|-----------------------|-----------------------|
--------0----------1-----|--------5----------7-----|--5-----------------2--|--2----2----2-------1--|
-------------------------|-------------------6-----|-----------------------|--4----4----3----------|
--3-----------2----------|-------------------------|--0---------0----------|------------4----------|
-------------------0-----|--1-----------0----------|-------0---------------|--2----2---------------|


              >                                                 >                                    
  E  E  E  E  Q    E  E     Q    Q    Q    E  E     E  E  E  E  Q    E  E     Q    E.  S Q    E  E   
-------------------------|-----------------------|--------0----------------|------------------------|
-----0--2--0----------0--|--1----1----1-------0--|--1--3-----3--1-------3--|--4----4-----4-------3--|
--2-----2-----2----------|------------1----------|--------------1----------|--0----0-----0----------|
--------------3----------|--2----2----0----------|--2-----2----------3-----|-----------4------------|
--------------4----------|--0----0---------------|--0-----0----------------|--3----------2----------|
--2-----2----------------|------------1----------|--------------1----------|------------------------|


                                                                                   >     >                
                                                                |---3---|                                 
  E  E  E  E  Q    E  E     Q    E  E  Q    E  E     Q    Q     E   E   E  Q       E  E  E  E  Q    Q     
-----1--3--1-------------|------------------------|-----------------------------|------------------------|
--4-----------4-------4--|--3-------4--3-------4--|--3----1-----0---------------|------------------------|
--0-----3----------0-----|-------------2----------|-------2----(0)--------------|-------------------1----|
-------------------2-----|-------0----------0-----|-----------------------------|------------------------|
--1-----------0----------|-------------0----------|-----------------------------|--------0--3--2---------|
-------------------------|--4---------------------|--3----1-----0---2h--3--4----|--1--3-------------0----|


        >          >              >                           >             >              >       NH          
  E  E  E  E  Q    E  E     E  E  E  E  Q     E   E     E  E  E  E  E   E   E  E      Q    Q       Q    E  E   
-------------------------|------------------------0--|--5--5--7--7--8--10--12--8--|--11----7------<12>--------|
-----------1--0----1--3--|--1--0-----0-------(3)-----|--------5-------------8-----|--------7------------0-----|
--2-----2----------2-----|--------2-----1----(1)-----|--------5-------------------|---------------------7--0--|
-----2--2----------1-----|--------2-----------2------|----------------------8-----|---------------------6-----|
--0----------------------|--0------------------------|--0-------------------------|---------------------------|
--------------1----------|--------------0------------|--------------8-------------|---7------------0----------|


        >          >              >                         >                        >    >        
  E  E  E  E  Q    E  E     E  E  E  E  Q    E  E     E  E  E  E  Q    E  E     Q    Q    Q    E   
-----------0-------0--1--|--0--------0----------0--|--1--3--5--7--8----7--8--|--5-----------------|
--1-----1-----3----1-----|-----3--1-----3----------|--------4-----0----------|--------------------|
-----0--0----------2-----|--------0----------1-----|--------5----------7-----|--5-----------------|
-------------------------|-------------------------|-------------------6-----|--------------------|
--3-----------3----------|--3-----------2----------|-------------------------|--0---------0-------|
-------------------------|-------------------0-----|--1-----------0----------|-------0------------|


   Q     E   E   E   E      Q    Q     Q       Q    E  E  E   E     Q    Q    Q       Q    Q    Q     
--12--------11--12--14--|--12---------10----|--9-------8--9--10--|--9---------7----|--6----7----9----|
------------------------|-------------------|-------7------------|------------6----|-----------------|
--------12--------------|--------7----------|--------------------|-------6---------|-----------------|
--11--------------------|---9---------------|--7-----------------|--6--------------|-------6----8----|
------------------------|-------------------|--------------------|-----------------|--9--------------|
------------------------|-------------------|--------------------|-----------------|-----------------|


   Q    Q     Q       Q    Q    Q        Q     Q     E  E      Q.      E   E   E      Q.      E   E   E   
--13---------11----|--9---------7----|---------------------|--14------13--14--16--|--14------13--14--16--|
-------------------|-------7----6----|--11-----------------|----------------------|----------------------|
-------------11----|-----------------|--------11----10-----|----------------------|----------------------|
---9----------9----|--6--------------|--------11-----------|----------------------|----------------------|
-------------------|-----------------|---9-----------------|--13------------------|--13------------------|
-------------------|-----------------|---------------------|----------------------|----------------------|


                                                                                         >                       
   Q     Q     Q        Q     H           Q.     E  E  E     Q    Q    Q       Q    Q    Q       Q    Q.     E   
--14----11----13----|--14--------------|---------------4--|--5---------4----|--2--------------|-----------------|
--------12----14----|--------10--------|--7------6--7-----|--7---------6----|-------2----2----|--2----0---------|
--------------------|--------11--------|--6---------------|--5---------4----|--2--------------|--1--------------|
--------------------|--10--------------|------------------|--0--------------|--4--------------|--2--------------|
--14----------------|------------------|------------------|------------4----|-----------------|-----------------|
--------------------|------------------|--6---------------|-----------------|-----------------|-----------------|


        >          >              >                           >             >              >       NH          
  E  E  E  E  Q    E  E     E  E  E  E  Q     E   E     E  E  E  E  E   E   E  E      Q    Q       Q    E  E   
-------------------------|------------------------0--|--5--5--7--7--8--10--12--8--|--11----7------<12>--------|
-----------1--0----1--3--|--1--0-----0-------(3)-----|--------5-------------8-----|--------7------------0-----|
--2-----2----------2-----|--------2-----1----(1)-----|--------5-------------------|---------------------7--0--|
-----2--2----------1-----|--------2-----------2------|----------------------8-----|---------------------6-----|
--0----------------------|--0------------------------|--0-------------------------|---------------------------|
--------------1----------|--------------0------------|--------------8-------------|---7------------0----------|


        >          >              >                         >                        >    >           
  E  E  E  E  Q    E  E     E  E  E  E  Q    E  E     E  E  E  E  Q    E  E     Q    Q    Q    E  E   
-----------0-------0--1--|--0--------0----------0--|--1--3--5--7--8----7--8--|--5--------------------|
--1-----1-----3----1-----|-----3--1-----3----------|--------4-----0----------|-----------------------|
-----0--0----------2-----|--------0----------1-----|--------5----------7-----|--5--------------------|
-------------------------|-------------------------|-------------------6-----|--------------------2--|
--3-----------3----------|--3-----------2----------|-------------------------|--0---------0----------|
-------------------------|-------------------0-----|--1-----------0----------|-------0---------------|


                                 >    >                   >                        >    >          
  E  E  E  E  Q    E  E     Q    Q    Q    E  E     E  E  E  E  Q    E  E     Q    Q    Q    Q     
-------------------------|--------------------0--|--1--3--5--7--8----7--8--|--5-------------------|
--------------1----0--1--|-----------------------|--------4-----0----------|----------------------|
-----0--2--4-------1-----|--2--------------------|--------5----------7-----|--5-------------------|
--3-----1----------0-----|-----------------------|-------------------6-----|----------------------|
-------------------------|--0---------0----------|-------------------------|--0---------0---------|
--1-----------0----------|-------0---------------|--1-----------0----------|-------0--------------|


       >         >       >             >           
                              |--3--|              
  Q    Q    Q    Q       Q    E  E  E  Q    Q      
----------------------|-------0--2--4--5---------||
-------1---------0----|----------------5---------||
-------2---------1----|--2-------------5---------||
-------1---------0----|--2-----------------------||
----------------------|--0-------------0---------||
--1---------0---------|-------0------------------|| fine....

Login or Register to remove this ad.

2 comments on Ashley's Theme

Love this Arrangement so much!

5

Very fun to play and another great arrangement! Keep them coming!

Awesome! Have wanted a tab of

5

Awesome! Have wanted a tab of this for years. Great job.