Ads

Human 1 (Warcraft II: Tides of Darkness) Guitar Tab

Submitted: Sep 18, 2015 by Bessem

5
Average: 5 (2 votes)
Download | Listen
Game: Warcraft II: Tides of Darkness
Composer(s): Glenn Stafford
Style: 2 or more instruments, Transcription

Click here for a video example.

AutoScroll: Slow | Medium | Fast
Piste 1



     S S S E.  T T T T T S. T E.  T T T T T  
E||------------0---0---0----0---------------|
B||------0-----1---1---1----1-------3---3---|
G||--2---1-----2---2---2----2-------2---2---|
D||--2---2-----2---2---2----2-------3---3---|
A||--2---2-----0---0---0----0-------1---1---|
E||------0----------------------------------|


  T S. T E.  T T T T T T S. T E.  T T T T T  
------------------------------------0---0---|
--3----3-------3---3---3----3-------1---1---|
--2----2-------1---1---1----1-------2---2---|
--3----3-------2---2---2----2---------------|
--------------------------------------------|
--------------------------------------------|


  T S. T E.  T T T T T T S. T E.  T T T T T  
--0----0-------0---0---0----0-------2---2---|
--1----1-------1---1---1----1-------4---4---|
--2----2-------2---2---2----2-------4---4---|
--------------------------------------------|
--------------------------------------------|
--------------------------------------------|


  T S. T E.  T T T T T T S. T E.  T T T T T  
--2----2-------1---1---1----1-------0---0---|
--4----4-------3---3---3----3-------2---2---|
--4----4-------3---3---3----3-------2---2---|
--------------------------------------------|
--------------------------------------------|
--------------------------------------------|


  T S. T E.  T T T T T T S. T E.  T T T T T  
--0----0-------0---0---0----0---------------|
--2----2-------1---1---1----1-------3---3---|
--2----2-------2---2---2----2-------2---2---|
------------------------------------3---3---|
--------------------------------------------|
--------------------------------------------|


  T S. T E.  T T T T T T S. T E.  T T T T T  
------------------------------------0---0---|
--3----3-------3---3---3----3-------1---1---|
--2----2-------1---1---1----1-------2---2---|
--3----3-------2---2---2----2---------------|
--------------------------------------------|
--------------------------------------------|


  T S. T E.  T T T T T T S. T E.  T T T T T  
--0----0-------0---0---0----0---------------|
--1----1-------1---1---1----1-------4---4---|
--2----2-------2---2---2----2-------4---4---|
------------------------------------4---4---|
--------------------------------------------|
--------------------------------------------|


  T S. T E.  T T T T T T S. T E.  T T T T T  
------------------------------------0---0---|
--4----4-------3---3---3----3-------1---1---|
--4----4-------2---2---1----1-------2---2---|
--4----4-------2---2---2----2---------------|
--------------------------------------------|
--------------------------------------------|


  T S. T E.  T T T T T T S. T E.  T T T T T  
--0----0-------0---0---0----0---------------|
--1----1-------1---1---1----1-------3---3---|
--2----2-------2---2---2----2-------2---2---|
------------------------------------3---3---|
--------------------------------------------|
--------------------------------------------|


  T S. T E.  T T T T T T S. T E.  T T T T T  
------------------------------------0---0---|
--3----3-------3---3---3----3-------1---1---|
--2----2-------1---1---1----1-------2---2---|
--3----3-------2---2---2----2---------------|
--------------------------------------------|
--------------------------------------------|


  T S. T E.  T T T T T T S. T E.  T T T T T  
--0----0-------0---0---0----0-------2---2---|
--1----1-------1---1---1----1-------4---4---|
--2----2-------2---2---2----2-------4---4---|
--------------------------------------------|
--------------------------------------------|
--------------------------------------------|


  T S. T E.  T T T T T T S. T E.  T T T T T  
--2----2-------1---1---1----1-------0---0---|
--4----4-------3---3---3----3-------2---2---|
--4----4-------3---3---3----3-------2---2---|
--------------------------------------------|
--------------------------------------------|
--------------------------------------------|


  T S. T E.  T T T T T T S. T E.  T T T T T  
--0----0-------0---0---0----0---------------|
--2----2-------1---1---1----1-------3---3---|
--2----2-------2---2---2----2-------2---2---|
------------------------------------3---3---|
--------------------------------------------|
--------------------------------------------|


  T S. T E.  T T T T T T S. T E.  T T T T T  
------------------------------------0---0---|
--3----3-------3---3---3----3-------1---1---|
--2----2-------1---1---1----1-------2---2---|
--3----3-------2---2---2----2---------------|
--------------------------------------------|
--------------------------------------------|


  T S. T E.  T T T T T T S. T E.  T T T T T  
--0----0-------0---0---0----0---------------|
--1----1-------1---1---1----1-------4---4---|
--2----2-------2---2---2----2-------4---4---|
------------------------------------4---4---|
--------------------------------------------|
--------------------------------------------|


  T S. T E.  T T T T T T S. T E.  T T T T T  
------------------------------------0---0---|
--4----4-------3---3---3----3-------1---1---|
--4----4-------2---2---1----1-------2---2---|
--4----4-------2---2---2----2---------------|
--------------------------------------------|
--------------------------------------------|


  T S. T E.  T T T T T T S. T E.  T T T T T  
--0----0-------0---0---0----0---------------|
--1----1-------1---1---1----1-------3---3---|
--2----2-------2---2---2----2-------2---2---|
------------------------------------3---3---|
--------------------------------------------|
--------------------------------------------|


  T S. T E.  T T T T T T S. T E.  T T T T T  
------------------------------------0---0---|
--3----3-------3---3---3----3-------1---1---|
--2----2-------1---1---1----1-------2---2---|
--3----3-------2---2---2----2---------------|
--------------------------------------------|
--------------------------------------------|


  T S. T E.  T T T T T T S. T E.  T T T T T  
--0----0-------0---0---0----0-------2---2---|
--1----1-------1---1---1----1-------4---4---|
--2----2-------2---2---2----2-------4---4---|
--------------------------------------------|
--------------------------------------------|
--------------------------------------------|


  T S. T E.  T T T T T T S. T E.  T T T T T  
--2----2-------1---1---1----1-------0---0---|
--4----4-------3---3---3----3-------2---2---|
--4----4-------3---3---3----3-------2---2---|
--------------------------------------------|
--------------------------------------------|
--------------------------------------------|


  T S. T E.  T T T T T T S. T E.  T T T T T  
--0----0-------0---0---0----0---------------|
--2----2-------1---1---1----1-------3---3---|
--2----2-------2---2---2----2-------2---2---|
------------------------------------3---3---|
--------------------------------------------|
--------------------------------------------|


  T S. T E.  T T T T T T S. T E.  T T T T T  
------------------------------------0---0---|
--3----3-------3---3---3----3-------1---1---|
--2----2-------1---1---1----1-------2---2---|
--3----3-------2---2---2----2---------------|
--------------------------------------------|
--------------------------------------------|


  T S. T E.  T T T T T T S. T E.  T T T T T  
--0----0-------0---0---0----0---------------|
--1----1-------1---1---1----1-------4---4---|
--2----2-------2---2---2----2-------4---4---|
------------------------------------4---4---|
--------------------------------------------|
--------------------------------------------|


  T S. T E.  T T T T T T S. T E.  T T T T T    T S. T E.  T S S E  S S E  S S  
------------------------------------0---0---|--0----0-------0-0----0----------|
--4----4-------3---3---3----3-------1---1---|--1----1-------1-1----1------3---|
--4----4-------2---2---1----1-------2---2---|--2----2-------2-2----2------2---|
--4----4-------2---2---2----2---------------|-----------------------------3---|
--------------------------------------------|-------------------0------2------|
--------------------------------------------|---------------------------------|


  E  S S E  S S E  S S E  S S    E  S S E  S S E  S S E  S S  
--------------------------0---|-----0------0-0----0------2---|
-----3------3-3----3------1---|-----1------1-1----1------4---|
-----2------1-1----1------2---|-----2------2-2----2------4---|
-----3------2-2----2----------|------------------------------|
--2--------------------0------|--0------0------0------2------|
---------0------0-------------|------------------------------|


  E  S S E  S S E  S S E  S S    E  S S S S S S E  S S E  S S  
-----2------1-1----1------0---|-----0---0---0-0----0----------|
-----4------3-3----3------2---|-----2---1---1-1----1------3---|
-----4------3-3----3------2---|-----2---2---2-2----2------2---|
------------------------------|---------------------------3---|
--2------1------1------0------|--0----0---------0------0------|
------------------------------|-------------------------------|


  E  S S S S S S E  S S E  S S    E  S S S S S S E  S S S S S S  
---------------------------0---|-----0---0---0-0----0-----------|
-----3---3---3-3----3------1---|-----1---1---1-1----1---4---4---|
-----2---1---1-1----1------2---|-----2---2---2-2----2---4---4---|
-----3---2---2-2----2----------|------------------------4---4---|
--0---------------------0------|--0--------------0--------------|
-------0---------0-------------|--------------------------------|


  E  S S S S S S E  S S Q       Q    S H        E.    
-----------------------------|-------5--------------||
-----4---3---3-3----3---5----|-------5--------------||
-----4---2---2-2----1---5----|--L----5--------------||
-----4---2---2-2----2--------|----------------------||
--2--------------------------|------------------0---||
-----------------------------|----------------------||




Piste 2



     S S S S Q.     S. T E.  T T    E.  T T Q    Q    E.  S  
E||------------------------------|--------------------------|
B||------0---1------L----0---L---|---------------0----------|
G||--2---------------------------|--------------------2-----|
D||------------------------------|--3---L---2---------------|
A||------------------------------|--------------------------|
E||------------------------------|--------------------------|


  S S S S E.  T T E.  T T E.  T T    E.  T T E.  T T E.  T T E.  T T  
------------------0---L-----------|----------------------------------|
------0---1---L-----------4---L---|------------------3---L---2---L---|
--2-------------------------------|--4---L---3---L-------------------|
----------------------------------|----------------------------------|
----------------------------------|----------------------------------|
----------------------------------|----------------------------------|


  S S S S Q.     S. T Q       E.  T T Q    E.  T T E.  S  
---------------------------|-----------------------------|
------0---1------L----0----|---------------0---L---------|
--2------------------------|-----------------------2-----|
---------------------------|--3---L---2------------------|
---------------------------|-----------------------------|
---------------------------|-----------------------------|


  S S S S Q    Q    Q       E.  T T E.  T T E.  T T Q     
---------------0---------|-------------------------------|
------0---1---------4----|--0---L---3---L----------------|
--2----------------------|------------------1---L---2----|
-------------------------|-------------------------------|
-------------------------|-------------------------------|
-------------------------|-------------------------------|


  S S S S E.  S S S S S E.  T T    E.  T T E.  S S S S S E.  S  
--------------------------------|------------------------------|
------0---1---0-1-------0---L---|--------------------0---------|
--2-----------------2-----------|------------------------2-----|
--------------------------------|--3---L---2---1-2-------------|
--------------------------------|------------------------------|
--------------------------------|------------------------------|


  S S S S E.  S S S S S E.  T T    E.  T T E.  S S S S S E.  T T  
--------------------0-----------|--------------------------------|
------0---1---0-1-------4---L---|--0---L-------------3---2---L---|
--2-----------------------------|----------3---2-3---------------|
--------------------------------|--------------------------------|
--------------------------------|--------------------------------|
--------------------------------|--------------------------------|


  S S S S E.  S S S S S Q       E.  T T E.  S S S S S E.  S  
-----------------------------|------------------------------|
------0---1---0-1-------0----|--------------------0---------|
--2-----------------2--------|------------------------2-----|
-----------------------------|--3---L---2---1-2-------------|
-----------------------------|------------------------------|
-----------------------------|------------------------------|


  S S S S E.  S S S S S Q       E.  T T E.  S S S S S Q     
--------------------0--------|-----------------------------|
------0---1---0-1-------4----|--0---L---3---2-3------------|
--2--------------------------|--------------------1---2----|
-----------------------------|-----------------------------|
-----------------------------|-----------------------------|
-----------------------------|-----------------------------|


  S S S S Q.     S. T E.  T T    E.  T T Q    Q    E.  S  
------------------------------|--------------------------|
------0---1------L----0---L---|---------------0----------|
--2---------------------------|--------------------2-----|
------------------------------|--3---L---2---------------|
------------------------------|--------------------------|
------------------------------|--------------------------|


  S S S S E.  T T E.  T T E.  T T    E.  T T E.  T T E.  T T E.  T T  
------------------0---L-----------|----------------------------------|
------0---1---L-----------4---L---|------------------3---L---2---L---|
--2-------------------------------|--4---L---3---L-------------------|
----------------------------------|----------------------------------|
----------------------------------|----------------------------------|
----------------------------------|----------------------------------|


  S S S S Q.     S. T Q       E.  T T Q    E.  T T E.  S  
---------------------------|-----------------------------|
------0---1------L----0----|---------------0---L---------|
--2------------------------|-----------------------2-----|
---------------------------|--3---L---2------------------|
---------------------------|-----------------------------|
---------------------------|-----------------------------|


  S S S S Q    Q    Q       E.  T T E.  T T E.  T T Q     
---------------0---------|-------------------------------|
------0---1---------4----|--0---L---3---L----------------|
--2----------------------|------------------1---L---2----|
-------------------------|-------------------------------|
-------------------------|-------------------------------|
-------------------------|-------------------------------|


  S S S S Q.     S. T E.  T T    E.  T T E.  T T E.  T T E.  S  
------------------------------|--------------------------------|
------0---1------L----0---L---|------------------0---L---------|
--2---------------------------|--------------------------2-----|
------------------------------|--3---L---2---L-----------------|
------------------------------|--------------------------------|
------------------------------|--------------------------------|


  S S S S E.  T T E.  T T E.  T T    E.  T T E.  T T E.  T T E.  T T  
------------------0---L-----------|----------------------------------|
------0---1---L-----------4---L---|------------------3---L---2---L---|
--2-------------------------------|--4---L---3---L-------------------|
----------------------------------|----------------------------------|
----------------------------------|----------------------------------|
----------------------------------|----------------------------------|


  S S S S Q.     S. T E.  T T    E.  T T E.  T T E.  T T E.  S  
------------------------------|--------------------------------|
------0---1------L----0---L---|------------------0---L---------|
--2---------------------------|--------------------------2-----|
------------------------------|--3---L---2---L-----------------|
------------------------------|--------------------------------|
------------------------------|--------------------------------|


  S S S S E.  T T E.  T T E.  T T    E.  T T E.  T T E.  T T Q     
------------------0---L-----------|------------------4---L---5----|
------0---1---L-----------4---L---|----------3---L----------------|
--2-------------------------------|--4---L------------------------|
----------------------------------|-------------------------------|
----------------------------------|-------------------------------|
----------------------------------|-------------------------------|


  Q    H.             
--L-----------------||
--------------------||
--------------------||
--------------------||
--------------------||
--------------------||
Login or Register to remove this ad.