Sailing With The Coffee Pirates (Wandersong) Guitar Tab

Submitted: Feb 10, 2019 by Powxjason (Last updated: Feb 11, 2019)

0
Download | Listen
Game: Wandersong
Composer(s): Greg Lobanov, Gordon McGladdery
Style: Fingerstyle, Transcription

AutoScroll: Slow | Medium | Fast
E|-------------------------------------------------------------------------------------------------
B|----------1-3-1---1-----3-1-----1----------------------------------------------------------------
G|--2----2--------3---2-------3-2---2-0--------------2-----2------0--2--0-----0------3-2-0-2-0---0-
D|-------------------------------------------------3---3------3------------3-----3-------------3---
A|---------------------------------------3--3--3---------------------------------------------------
E|-------------------------------------------------------------------------------------------------

E|------------------------------------------------------------------------------------------------
B|-1-1----------------------------------------------------------------------3-------------------
G|---------------2---2--------------------2-0-----------2-----2---------0-2---2---------2-0-2----
D|------3------0---0-----------0--3-0-2-3-----3-2-0---0-----0---0-3-2-3--------0--2--3---------
A|-----------------------3-0-3----------------------3----------------------------------------------
E|-----------------------------------------------------------------------------------------------

E|----------------------------------------------------------------------------------------------
B|-1------------------1-3-1---1-----3-1-----1----------------------------------------------------
G|---2-0------2----2--------3---2-------3-2---2-0--------------2-----2------0--2--0-----0------3-2-
D|-------3---------------------------------------------------3---3------3------------3-----3-------
A|-------------------------------------------------3--3--3-----------------------------------------
E|-------------------------------------------------------------------------------------------------

E|-------------------------------------------------------------5--3--------------6-----8-----5--
B|------------1-1-------------1--------------------------1-3---------3--1--4--3-----------------
G|-0-2-0---0------------3-----------2------2--------2-3-----------------------------------------
D|------3----------3-----------------------------3----------------------------------------------
A|----------------------------------------------------------------------------------------------
E|----------------------------------------------------------------------------------------------

E|--10--8--10-13-8-10-6--6/8--8--0-|
B|---------------------------------|
G|---------------------------------|
D|---------------------------------|
A|---------------------------------|
E|---------------------------------|

Login or Register to remove this ad.