Ads

Moonscape (Wandersong) Guitar Tab

Submitted: Apr 05, 2019 by Powxjason (Last updated: Apr 12, 2019)

0
Download | Listen
Game: Wandersong
Composer(s): Greg Lobanov, Gordon McGladdery
Style: Transcription

AutoScroll: Slow | Medium | Fast
E|-----------2-----------------------------------------------------
B|--0-----0-----4--0-----0--2--4-----------------------------2-----
G|-----3--------------3-----------1--1-----1--3--4--1--1--------3--
D|--------------------------------------4-----------------4--------
A|-----------------------------------------------------------------
E|-----------------------------------------------------------------

E|-----------2-----------------------------------------------------
B|--0-----0-----4--0-----0--2--4--4-----------2--2--2--------------
G|-----3--------------3--------------1--1--1-----------------4--3--
D|-----------------------------------------------------4--4--------
A|-----------------------------------------------------------------
E|-----------------------------------------------------------------

E|-----------2-----------------------------------------------------
B|--0-----0-----4--0-----0--2--4-----------------------------2-----
G|-----3--------------3-----------1--1-----1--3--4--1--1--------3--
D|--------------------------------------4-----------------4--------
A|-----------------------------------------------------------------
E|-----------------------------------------------------------------

E|-----------2-----------------------------------------------------
B|--0-----0-----4--0-----0--2--4--4-----------2--2--2--------------
G|-----3--------------3--------------1--1--1-----------------------
D|-----------------------------------------------------4--4--4-----
A|-----------------------------------------------------------------
E|-----------------------------------------------------------------
E|-----------2-----------------------------------------------------
B|--0-----0-----4--0-----0--2--4-----------------------------2-----
G|-----3--------------3-----------1--1-----1--3--4--1--1--------3--
D|--------------------------------------4-----------------4--------
A|-----------------------------------------------------------------
E|-----------------------------------------------------------------

E|-----------2-----------------------------------------------------
B|--0-----0-----4--0-----0--2--4--4-----------2--2--2--------------
G|-----3--------------3--------------1--1--1-----------------4--3--
D|-----------------------------------------------------4--4--------
A|-----------------------------------------------------------------
E|-----------------------------------------------------------------

E|-----------2-----------------------------------------------------
B|--0-----0-----4--0-----0--2--4-----------------------------2-----
G|-----3--------------3-----------1--1-----1--3--4--1--1--------3--
D|--------------------------------------4-----------------4--------
A|-----------------------------------------------------------------
E|-----------------------------------------------------------------

E|-----------2-----------------------------------------------------
B|--0-----0-----4--0-----0--2--4--4-----------2--2--2--------------
G|-----3--------------3--------------1--1--1-----------------------
D|-----------------------------------------------------4--4--4-----
A|-----------------------------------------------------------------
E|-----------------------------------------------------------------
Login or Register to remove this ad.