Miriam (Wandersong) Guitar Tab

Submitted: Feb 10, 2019 by Powxjason (Last updated: Feb 11, 2019)

0
Download | Listen
Game: Wandersong
Composer(s): Greg Lobanov, Gordon McGladdery
Style: Fingerstyle, Transcription

AutoScroll: Slow | Medium | Fast
E|-----------------------12--13-12-10----------10-------------------12----------------
B|------10-9-10-12-10------------------13-12------13-12-10--9-12-12-------------------
G|---9--------------------------------------------------------------------------------
D|------------------------------------------------------------------------------------
A|------------------------------------------------------------------------------------
E|------------------------------------------------------------------------------------

E|-----------------------12--13-12-10----------10------------12-----------------------
B|------10-9-10-12-10------------------13-12------13-12-10-9----9-10------------------
G|---9--------------------------------------------------------------------------------
D|------------------------------------------------------------------------------------
A|------------------------------------------------------------------------------------
E|------------------------------------------------------------------------------------

E|-----------------------12--13-12-10----------10-------------------12----------------
B|------10-9-10-12-10------------------13-12------13-12-10--9-12-12-------------------
G|---9--------------------------------------------------------------------------------
D|------------------------------------------------------------------------------------
A|------------------------------------------------------------------------------------
E|------------------------------------------------------------------------------------

E|-----------------------12--13-12-10----------10------------12-----------------------
B|------10-9-10-12-10------------------13-12------13-12-10-9----9-10------------------
G|---9--------------------------------------------------------------------------------
D|------------------------------------------------------------------------------------
A|------------------------------------------------------------------------------------
E|------------------------------------------------------------------------------------

E|------------------------------------------------------------------------------------
B|------------------------------------------------------------------------------------
G|------------------------------------------------------------------------------------
D|-----------10---------------------10----------------10----10--12--13--12--10--------
A|--10-12-13----13---12----10-12-13----13----10-12-13----13---------------------13--12
E|------------------------------------------------------------------------------------

E|------------------------------------------------------------------------------------
B|------------------------------------------------------------------------------------
G|------------------------------------------------------------------------------------
D|-----------10---------------------10----------------10----10--14--12--10------------
A|--10-12-13----13---12----10-12-13----13----10-12-13----13-----------------14--12----
E|------------------------------------------------------------------------------------

Loop back to the beginning

Login or Register to remove this ad.