Ads

Main Menu (The Walking Dead: Season Two) Guitar Tab

Submitted: Nov 13, 2015 by Krakenzx

5
Average: 5 (1 vote)
Download | Listen
Game: The Walking Dead: Season Two
Composer(s): Jared Emerson-Johnson
Style: Transcription

This song is also called The Last Moments

AutoScroll: Slow | Medium | Fast
e-----------------------------------------------------------------------------------
B-----------------------------------------------------------0-----------------------
G-----------------------------------------------------0--2-----2--------------------
D--------4--------4--5--4--------4--------4--5--4--0--------------4--------4--5--4--
A-----2--------2--------------2--------2--------------------------------2-----------
E--0--------0--------------0--------0--------------------------------0--------------

0:32
e-----------------------------------------------------------------------------------
B-----------------------------------0-----------------------------------------------
G-----------------------------0--2-----2-----------------------------------0--------
D--------4--------4--5--4--0--------------4--------4--5--4--------------------2-----
A-----2--------2--------------------------------0-----------3--2--3-----3-----------
E--0--------0--------------------------------0-----------------------3--------------

1:01
e-----------------------------------------------------------------------------------
B-----------------------------------------------------------------------------------
G-----------2-----2-----------------------------------------------------------------
D-----4--0-----4-----2-----4-----------4-----5--4--------4--------4-----5--4--------
A--0--------------------2-----2-----2-----2-----------2--------2-----2--------------
E--------------------------------0-----------------0--------0-----------------------
Login or Register to remove this ad.