Introduction (Wakfu) Guitar Tab

Submitted: Jun 18, 2012 by Lemoncobbler

5
Average: 5 (2 votes)
Download | Listen
Game: Wakfu
Composer(s): Guigui
Style: Arrangement, Fingerstyle, Percussion

AutoScroll: Slow | Medium | Fast
                                  Wakfu Intro                                   
From the Wakfu Mmorpg
Composed by Guigui
Arranged By Lemoncobbler


Track 1
     E.  E  S E.  E  S E.  S    S S E.  E  S E.  E  S E   
E||--------------------0-----|---------------------------|
B||--------------------------|------0--------------------|
G||--0--------2--------------|---------------0--------2--|
D||------x--0-----0--x-----2-|--L-x--------------x--0----|
A||--------------------2-----|----------2----0-----------|
E||--3-----------------------|-------------x-------------|


  S E  S E.  E  S E.  E  S    E.  E  S E.  E  S E.  S  
---------0-----------------|--------------------0-----|
------------------0--------|--------------------------|
--L------------------------|--0--------2--------------|
----0--x-----2--x----------|------x--0-----0--x-0---2-|
----------------------2----|--------------------2-----|
---------2---------------x-|--0-----------------------|


  S S E.  E  S E.  E  S E     S E  S E.  E  S E.  E  S  
---------------------------|---------0-----------------|
------0--------------------|------------------0--------|
---------------0--------2--|--L------------------------|
--L-x----------2---x--0----|----0--x-----2--x----------|
----------2----------------|---------2--------L---2----|
-------------x----------0--|---------L---------------0-|


  E.  E.  E.  E  S E.  S    E  E.  E  S E.  E  S E     S E  S E.  E.  E.  E  S  
-------------------------|--------------0-----------|--------------------------|
--0-------0--------0---3-|--L--0-----------------3--|--L------0-------0--------|
------2------------------|--------------------------|-------------2------------|
----------0---x--x-------|-----2------------x--x----|---------2-----------x--x-|
-------------------------|-----------------------2--|--L-----------------------|
--3----------------0-----|---------x--x-0-----------|----x--x---------0--------|


  E.  E  S E.  E  S E.  S    E  E.  E  S E.  E  S E   
--0-----------------------|--------------------------|
-----------0------------0-|--L-----------------------|
--------------------2-----|-----2--------0--------2--|
------x--x-----x--x-2-----|---------x--x-------------|
-----------0--------------|-----2--------2---x--x-0--|
--0-----------------------|--------------3-----------|


  S E  S E.  E  S E.  E  S    H.           Q       H        H         
---------0-----------------|--------------------|--------------------|
------------------0--------|--0------------1----|--L--------0--------|
---------------------------|--0------------1----|--L--------0--------|
---------2-----------------|--0------------1----|--L--------0--------|
----x--x-----x--x-----x--x-|--------------------|--------------------|
------------------0--------|--3-----------------|-----------3--------|


  Q    H.              E.  E.  E.  E  S E.  S    E  E.  E  S E.  E  S E   
--------------------|-------------------------|--------------1-----------|
--L----1------------|-----------------------4-|--L--------------------4--|
--L----1------------|--5---3---5--------5-----|-----5--------------------|
-------1------------|-------------------------|--------------------------|
--L-----------------|--------------x--x-3-----|---------x--x-1---x--x----|
--L-----------------|--4----------------------|--------------------------|


  S E  S E.  E.  E.  E  S    E.  E  S E.  E  S E.  S    E  E.  E  S E.  E.  E   
--------------------------|--1-----------------------|-------------------------|
--L------1-------1--------|-----------1------------1-|--L----------------------|
-------------3------------|--------------------3-----|-----3----------------3--|
--------------------------|--------------------1-----|-------------------------|
----x--x-------------x--x-|------x--x-----x--x-------|---------x--x-----3------|
---------3----------------|--1-----------------------|--------------1----------|


  S S S S H.              H.           Q       E  Q.     Q.     E   
-----------------------|--------------------|----------------------|
-----------------------|--------------------|----------------------|
--L-3-1-0--------------|--5------------3----|--L--1----------------|
----------3------------|---------------1----|--L---------3---------|
----------3------------|--------------------|------------1---------|
-----------------------|--4-----------------|-------------------1--|


  Q    Q.     Q.        H.           Q       E  Q.     H         
---------------------|--------------------|---------------------|
---------------------|--------------------|---------------------|
--------------1------|---------------3----|--L--1---------------|
---------------------|--3------------1----|--L---------1--------|
-------3-------------|--------------------|---------------------|
--L------------------|--1-----------------|---------------------|


  Q    H.              Q    Q    Q    Q       E  S E.  E.  E.  E  S S  
--------------------|----------------------|--------------------------|
--------------------|----------------------|--------------------------|
--------------------|--1-------------------|--------------------------|
--L----3------------|--1-------------------|--x--x-----x-------x--x---|
-------3------------|----------------------|--------------------------|
-------1------------|----------------------|--------------------------|


  E  Q    Q    Q    E     E.  E.  E.  E  S E.  S    E  E.  E  S E.  E  S E   
-----------------------|-------------------------|--------------0-----------|
-----------------------|--0-------0--------0---3-|--L--0-----------------3--|
-----------------------|------2------------------|--------------------------|
-----x-----------------|----------0---x--x-------|-----2------------x--x----|
-----------------------|-------------------------|-----------------------2--|
-----------------------|--3----------------0-----|---------x--x-0-----------|


  S E  S E.  E.  E.  E  S    E.  E  S E.  E  S E.  S  
--------------------------|--0-----------------------|
--L------0-------0--------|-----------0------------0-|
-------------2------------|--------------------2-----|
---------2-----------x--x-|------x--x-----x--x-2-----|
--L-----------------------|-----------0--------------|
----x--x---------0--------|--0-----------------------|


  E  E.  E  S E.  E  S E     S E  S E.  E  S E.  E  S    H.           Q      
--------------------------|---------0-----------------|--------------------||
--L-----------------------|------------------0--------|--0-----------------||
-----2--------0--------2--|---------------------------|--0-----------------||
---------x--x-------------|---------2-----------------|--0-----------------||
-----2--------2---x--x-0--|----x--x-----x--x-----x--x-|--2-----------------||
--------------3-----------|------------------0--------|--3-----------------||




Duration Legend
---------------
W - whole
H - half
Q - quarter
E - 8th
S - 16th
T - 32nd
X - 64th
. - note dotted
|-n-|  - n-tuplets


Tablature Legend
----------------
L - tied note
x - dead note
g - grace note
(n) - ghost note
> - accentuded note
NH - natural harmonic
AH - artificial harmonic
TH - tapped harmonic
SH - semi harmonic
PH - pitch harmonic
h - hammer on
p - pull off
b - bend
br - bendRelease
pb - preBend
pbr - preBendRelease
brb - bendReleaseBend
\n/ - tremolo bar dip
\n - tremolo bar dive
-/n - tremolo bar Release up
/n\ - tremolo bar inverted dip
/n - tremolo bar return
-\n - tremolo bar Release down
S - shift slide
s - legato slide
/ -  slide into from below or out of upwards
\ -  slide into from above or out of downwards
~ - vibrato
W - wide vibrato
tr - trill
TP - tremolo picking
T - tapping
S - slap
P - pop
< - fade in
^ - brush up
v - brush down
Login or Register to remove this ad.

3 comments on Introduction

the lemon cobbler

the lemon cobbler

i agree

i agree

(No subject)