Ads

Tree of Smiles (Wagan Paradise) Bass Tab

Submitted: Mar 10, 2011 by auriplane (Last updated: Mar 10, 2011)

0
Download | Listen
Game: Wagan Paradise
Composer(s): Yoshinori Kawamoto, Eriko Imura
Style: Transcription
Series: Wagan Land

This song is also called Smiley Tree

AutoScroll: Slow | Medium | Fast
                              Wagan Paradise - Tree of Smiles  BASS TAB
                             Composed by Yoshinori Kawamoto, Eriko Imura
                  
                               Tabbed by auriplane ([email protected])


Four-string bass, drop-D tuning.  If you want to play it in standard tuning, scroll down.  It's just in
drop-D to avoid the awkward shifts after the sixteenth note triplets.



                                         DROP-D TUNING VERSION
        Intro

G |------------------------|------------------------|------------------------|------------------------|
D |5-----------------------|------------------------|5-----------------------|------------------------|
A |------------------------|----------------------5-|------------------------|------------------------|
D |------------------------|------------------------|------------------------|------------------------|

        Part A

G |5-----------------------|------------------------|5-----------------------|------------------------|
D |------------------------|------------5-----5-----|---------------------5--|------------5--75-------|
A |---------7-----7-----6--|5--------5--------------|---------7-----6--7-----|5--------5-------85-----|
D |------------------------|------------------------|------------------------|---------------------5--|


G |5-----------------------|------------------------|5-----------------------|------------------------|
D |------------------------|------------5-----5-----|---------------------5--|------------5--75----5--|
A |---------7-----7-----6--|5--------5--------------|---3-----7-----6--7-----|5--------5-------85-----|
D |------------------------|------------------------|------------------------|------------------------|

        Part B

G |---------------------5--|---5--5--5--5--5--5--5--|------------------------|------------------------|
D |7--7--7--7--7--7--7-----|------------------------|------------------5--6--|---6--6--6--6--6--6--6--|
A |------------------------|------------------------|8--8--8--8--8--8--------|------------------------|
D |------------------------|------------------------|------------------------|------------------------|


G |------------------------|------------------------|------------------------|------------------------|
D |5--------5--5--------5--|---5-----5--5-----------|5--------5--5--------5--|------------5-----------|
A |------------------------|------------------------|------------------------|---5--5--------5--------|
D |------------------------|------------------------|------------------------|------------------5-----|

        Part A'  (variation for second time around)

G |5-----------------------|------------------------|5-----------------------|------------------------|
D |------------------------|------------5-----5-----|---------------------5--|------------5--75-------|
A |---------7-----7-----6--|5--------5--------------|---------7-----6--7-----|5--------5-------85-----|
D |------------------------|------------------------|------------------------|---------------------5--|


G |5-----------------------|------------------------|5-----------------------|------------------------|
D |------------------------|------------5-----5-----|---------7-----------7--|------------5--75----5--|
A |---------7-----7-----6--|5--------5--------------|---------------6--7-----|5--------5-------85-----|
D |------------------------|------------------------|------------------------|------------------------|

        Part B' - same as B, but hold the last note for an extra two measures :-)

G |---------------------5--|---5--5--5--5--5--5--5--|------------------------|------------------------|
D |7--7--7--7--7--7--7-----|------------------------|------------------5--6--|---6--6--6--6--6--6--6--|
A |------------------------|------------------------|8--8--8--8--8--8--------|------------------------|
D |------------------------|------------------------|------------------------|------------------------|


G |------------------------|------------------------|------------------------|------------------------|
D |5--------5--5--------5--|---5-----5--5-----------|5--------5--5--------5--|------------5-----------|
A |------------------------|------------------------|------------------------|---5--5--------5--------|
D |------------------------|------------------------|------------------------|------------------5-----|


G |------------------------|------------------------|
D |------------------------|------------------------|
A |------------------------|------------------------|
D |------------------------|------------------------|





                                         STANDARD TUNING VERSION

        Intro

G |------------------------|------------------------|------------------------|------------------------|
D |5-----------------------|------------------------|5-----------------------|------------------------|
A |------------------------|----------------------5-|------------------------|------------------------|
E |------------------------|------------------------|------------------------|------------------------|

        Part A

G |5-----------------------|------------------------|5-----------------------|------------------------|
D |------------------------|------------5-----5-----|---------------------5--|------------5--75-------|
A |---------7-----7-----6--|5--------5--------------|---------7-----6--7-----|5--------5-------85-----|
E |------------------------|------------------------|------------------------|---------------------3--|


G |5-----------------------|------------------------|5-----------------------|------------------------|
D |------------------------|------------5-----5-----|---------------------5--|------------5--75----5--|
A |---------7-----7-----6--|5--------5--------------|---3-----7-----6--7-----|5--------5-------85-----|
E |------------------------|------------------------|------------------------|------------------------|

        Part B

G |---------------------5--|---5--5--5--5--5--5--5--|------------------------|------------------------|
D |7--7--7--7--7--7--7-----|------------------------|------------------5--6--|---6--6--6--6--6--6--6--|
A |------------------------|------------------------|8--8--8--8--8--8--------|------------------------|
E |------------------------|------------------------|------------------------|------------------------|


G |------------------------|------------------------|------------------------|------------------------|
D |5--------5--5--------5--|---5-----5--5-----------|5--------5--5--------5--|------------5-----------|
A |------------------------|------------------------|------------------------|---5--5--------5--------|
E |------------------------|------------------------|------------------------|------------------3-----|

        Part A'  (variation for second time around)

G |5-----------------------|------------------------|5-----------------------|------------------------|
D |------------------------|------------5-----5-----|---------------------5--|------------5--75-------|
A |---------7-----7-----6--|5--------5--------------|---------7-----6--7-----|5--------5-------85-----|
E |------------------------|------------------------|------------------------|---------------------3--|


G |5-----------------------|------------------------|5-----------------------|------------------------|
D |------------------------|------------5-----5-----|---------7-----------7--|------------5--75----5--|
A |---------7-----7-----6--|5--------5--------------|---------------6--7-----|5--------5-------85-----|
E |------------------------|------------------------|------------------------|------------------------|

        Part B' - same as B, but hold the last note for an extra two measures :-)

G |---------------------5--|---5--5--5--5--5--5--5--|------------------------|------------------------|
D |7--7--7--7--7--7--7-----|------------------------|------------------5--6--|---6--6--6--6--6--6--6--|
A |------------------------|------------------------|8--8--8--8--8--8--------|------------------------|
E |------------------------|------------------------|------------------------|------------------------|


G |------------------------|------------------------|------------------------|------------------------|
D |5--------5--5--------5--|---5-----5--5-----------|5--------5--5--------5--|------------5-----------|
A |------------------------|------------------------|------------------------|---5--5--------5--------|
E |------------------------|------------------------|------------------------|------------------3-----|


G |------------------------|------------------------|
D |------------------------|------------------------|
A |------------------------|------------------------|
E |------------------------|------------------------|


Login or Register to remove this ad.