Ads

Path Complete (VVVVVV) Guitar Tab

Submitted: Jun 21, 2013 by Tortoise

5
Average: 5 (4 votes)
Download | Listen
Game: VVVVVV
Composer(s): Magnus Pålsson
Style: Arrangement, Fingerstyle

AutoScroll: Slow | Medium | Fast
VVVVVV
Path Complete (Track 5 of 13) - by Magnus Pålsson
Arranged for Guitar by Michael Achilles (Tortoise)
6-13-13

Standard Tuning


Tempo, Q=190

 3/4                      4/4

   E E E E E E   H    E E   E E E E E E E E   E E E E E E E E
E|-------------|----------|-----------------|-1-----3------------|
B|-1---1-0---3-|-2--------|-----1-----3-----|---3-----5----------|
G|---2-----0---|------2-0-|---2-----4-------|-----3-----5--------|
D|-3-----0-----|----------|-3-----5---------|--------------------|
A|-------------|-0--------|-------------5-3-|-1-----3-----3-5----|
E|-1-----3-----|----------|-1-----3---------|--------------------|


  H    Q  Q    Q  Q  Q  Q    H.      Q    W
|-5----3--1--|-0-----------|------------|------|
|-6-------1--|-1--1-----1--|-3----------|------|
|------2-----|-0--0--2--0--|-2----------|------|
|------------|-------------|-0-------3--|-0----|
|------------|-3-----------|------------|------|
|-6----------|-------------|------------|------|


Duration Legend
---------------
W - whole; H - half; Q - quarter; E - 8th
. - note dotted
Login or Register to remove this ad.