Ads

I Am Here (Voices of a Distant Star) Guitar Tab

Submitted: Sep 17, 2010 by hslesperance (Last updated: Aug 10, 2012)

5
Average: 5 (1 vote)
Download | Listen
Game: Voices of a Distant Star
Composer(s): Tenmon
Style: 2 or more instruments, Arrangement

AutoScroll: Slow | Medium | Fast
I Am Here
Voices of a Distant Star
Composed by Tenmon
Arranged by hslesperance
9/17/10

Guitar 1 - Standard TUning
Guitar 2 - Drop D Tuning

This is not an actual song from the movie. It is an arrangement 
I made based on the melody that plays in almost every song.




Guitar 1

    Q      Q       Q    Q      Q      Q       Q    Q
|-^13-----10---------------|-^13-----10---------------|
|-^11-------------13---11--|-^11-------------13---11--|
|-^10----------------------|-^10----------------------|
|--------------------------|--------------------------|
|--------------------------|--------------------------|
|--------------------------|--------------------------|


    Q      Q       Q    Q     Q.           E   +H
|-^13-----10---------------|-------------^-8---(8)----|
|-^11-------------13---11--|-11----------^10--(10)----|
|-^10----------------------|-10----------^10--(10)----|
|--------------------------|--------------------------|
|--------------------------|--------------------------|
|--------------------------|--------------------------|


  Q=100

  Q   Q   Q   Q      Q   Q   Q   Q     Q   Q   Q   Q     Q.          E  +H
|-1---------------|-^1---------------|-1---------------|-----------------------|
|-----3---1-------|------3---1-------|-----3---1-------|-----------------------|
|-3---3---3---3---|-^3---3---3---3---|-3---3---3---3---|-3-----------2--(2)----|
|-3---3---3---3---|-^3---3---3---3---|-3---3---3---3---|-3-----------3--(3)----|
|-----------------|------------------|-----------------|-----------------------|
|-----------------|------------------|-----------------|-----------------------|


  Q=116

  Q      E   E   E  E E E   +Q.          E   E  E E E
|-------------------------|---------------------------|
|-------------------------|---------------------------|
|-------------------------|--------------0------------|
|------------3---1--0---0-|-(0)--------------3--1-0---|
|---------------------3---|-------------------------1-|
|-------------------------|---------------------------|


  +Q.          E   E  E E E   +Q.          E  +H
|---------------------------|------------------------|
|---------------------------|------------------------|
|---------------------------|------------------------|
|--------------1---0------0-|-(0)--------------------|
|-(1)-----------------3-1---|--------------3--(3)----|
|---------------------------|--------------5--(5)----|


  Q.          Q.         E S S   Q.          Q.         E S S
|------------------------------|------------------------------|
|-------------3----------------|------------------------3-----|
|-5----------------------5-5-3-|-5-----------3------------5-3-|
|-3-----------3----------3-----|-3-----------3----------3-----|
|------------------------------|------------------------------|
|------------------------------|------------------------------|


  Q.          Q.         E S S   Q.          E  +H
|------------------------------|-----------------------|
|------------------------3-----|-----------------------|
|-5-----------3------------5-3-|-3-----------5--(5)----|
|-3-----------3----------3-----|-3-----------3--(3)----|
|------------------------------|-----------------------|
|------------------------------|-----------------------|


  Q.     Q   Q   E   +E  Q   Q   Q   E   +W
|------------------|-------------------|--------*|
|------------------|-------------------|--------*|
|------------------|-------------------|--------*|
|-0----------1---0-|-(0)-----3-------0-|-(0)----*|
|--------3---------|-----3-------3-----|--------*|
|------------------|-------------------|--------*|




Guitar 2

    E  E   E  +E  +H           E  E   E  +E  +H
|--------------------------|--------------------------|
|--------------------------|--------------------------|
|----------3--(3)-(3)------|--------------------------|
|------3--(3)-(3)-(3)------|----------5--(5)-(5)------|
|---1-(1)-(1)-(1)-(1)------|------5--(5)-(5)-(5)------|
|--------------------------|---5-(5)-(5)-(5)-(5)------|


    E  E   E  +E  +H          E   E   E    E   +H
|--------------------------|--------------------------|
|--------------------------|--------------------------|
|--------------------------|---------------2---(2)----|
|----------1--(1)-(1)------|----------3---(3)--(3)----|
|------1--(1)-(1)-(1)------|------3--(3)--(3)--(3)----|
|---1-(1)-(1)-(1)-(1)------|--3--(3)-(3)--(3)--(3)----|


  Q=100

  E E E E E E E E    E E E E E E E E   E E E E E E E E   E   E   E  +E  +H
|-----------------|------------------|-----------------|-----------------------|
|---------3-------|------------------|-----------------|-----------------------|
|-----3-------3---|----------3-------|-----------------|-----------------------|
|---3---3---3---3-|------5-------5---|-----1---3---1---|---------3--(3)-(3)----|
|-1---------------|----5---5---5---5-|---1---1---1---1-|-----3--(3)-(3)-(3)----|
|-----------------|--5---------------|-1---------------|-3--(3)-(3)-(3)-(3)----|


  Q=116

  E  E   E  +E  +H           E   E   E  +E  +H
|-------------------------|---------------------------|
|-------------------------|---------------------------|
|--------3--(3)-(3)-------|---------------------------|
|----3--(3)-(3)-(3)-------|----------5--(5)-(5)-------|
|-1-(1)-(1)-(1)-(1)-------|------5--(5)-(5)-(5)-------|
|-------------------------|--5--(5)-(5)-(5)-(5)-------|


   E   E   E  +E  +H           E   E   E  +E  +H
|---------------------------|------------------------|
|---------------------------|------------------------|
|---------------------------|------------------------|
|----------1--(1)-(1)-------|----------3--(3)-(3)----|
|------1--(1)-(1)-(1)-------|------3--(3)-(3)-(3)----|
|--1--(1)-(1)-(1)-(1)-------|--3--(3)-(3)-(3)-(3)----|


  E   E   E  +E  +E   Q.         E   E   E  +E  +E   Q.
|------------------------------|------------------------------|
|------------------------------|------------------------------|
|---------3--(3)-(3)--3--------|------------------------------|
|-----3--(3)-(3)-(3)-(3)-------|---------5--(5)-(5)--5--------|
|-1--(1)-(1)-(1)-(1)-(1)-------|-----5--(5)-(5)-(5)-(5)-------|
|------------------------------|-5--(5)-(5)-(5)-(5)-(5)-------|


  E   E   E  +E  +E   Q.         E   E   E  +E  +H
|------------------------------|-----------------------|
|------------------------------|-----------------------|
|------------------------------|-----------------------|
|---------1--(1)-(1)--1--------|---------3--(3)-(3)----|
|-----1--(1)-(1)-(1)-(1)-------|-----3--(3)-(3)-(3)----|
|-1--(1)-(1)-(1)-(1)-(1)-------|-3--(3)-(3)-(3)-(3)----|


  E  E E E E E E E    E  E E E E E E E    W
|------------------|-------------------|--------*|
|------------------|-------------------|--------*|
|------3---3---3---|-------3---3---3---|--------*|
|----3-------------|-----3-------------|--------*|
|-1----------------|--1----------------|--------*|
|------------------|-------------------|--------*|

W - whole 
H - half
Q - quarter
E - 8th
S - 16th
+ - note tied to previous;
. - note dotted
Login or Register to remove this ad.

1 comment on I Am Here

This is lovely :)

This is lovely :)