Ads

Yuujou no Shikisai (Vividred Operation) Guitar Tab

Submitted: Jan 17, 2014 by corntastic

3
Average: 3 (2 votes)
Download | Listen
Game: Vividred Operation
Composer(s): Hideyuki Fukusawa
Style: Transcription

This song is also called Main Theme, The Color of Friendship

AutoScroll: Slow | Medium | Fast
Yuujou no Shikisai
Vividred Operation
Hideyuki Fukusawa
corntastic
15/1/14


e--------------11----10---------------------------------------------------
B--11----13----------------11----11h13----11------------------------------
G-------------------------------------------------------------------------
D-------------------------------------------------------------------------
A-------------------------------------------------------------------------
E-------------------------------------------------------------------------

e--------------11----10----------13---------------------------------------
B--11----13----------------11---------------------------------------------
G-------------------------------------------------------------------------
D-------------------------------------------------------------------------
A-------------------------------------------------------------------------
E-------------------------------------------------------------------------

e--------------11----10---------------------------------------------------
B--11----13----------------11----11h13----11------------------------------
G-------------------------------------------------------------------------
D-------------------------------------------------------------------------
A-------------------------------------------------------------------------
E-------------------------------------------------------------------------

e--------------11----10--------13--------13b15----------------------------
B--11----13---------------------------------------------------------------
G-------------------------------------------------------------------------
D-------------------------------------------------------------------------
A-------------------------------------------------------------------------
E-------------------------------------------------------------------------

______________________________________________________________________________________

Tap if you must

	x7			x5
e------------|------5-6--|--8p6p5p3--|-----------|
B------------|--6-8------|-----------|--6-5-3----|
G--10p9p7p5--|-----------|-----------|--------5--|
D------------|-----------|-----------|-----------|
A------------|-----------|-----------|-----------|
E------------|-----------|-----------|-----------|
______________________________________________________________________________________


e--1------1--3------3--5--------8--6--5-----------------------------------
B-----1---------1----------6-------------8--------------------------------
G-------------------------------------------------------------------------
D-------------------------------------------------------------------------
A-------------------------------------------------------------------------
E------------------------------------------------------------------------- x2

e--6------6--8------8--10---------13--11--10--8L----------11--10--8-------
B-----6---------6-----------11--------------------------------------------
G-------------------------------------------------------------------------
D-------------------------------------------------------------------------
A-------------------------------------------------------------------------
E-------------------------------------------------------------------------

e--6------6--8------8--10---------11--10------8---------------------------
B-----6---------6-----------11------------11------------------------------
G-------------------------------------------------------------------------
D-------------------------------------------------------------------------
A-------------------------------------------------------------------------
E-------------------------------------------------------------------------

______________________________________________________________________________________


e------------8----8p6h8-10--6---------------------------------------------
B-------8------------------------6----8--6--5-----------------------------
G--8----------------------------------------------------------------------
D-------------------------------------------------------------------------
A-------------------------------------------------------------------------
E-------------------------------------------------------------------------

e------------8----8p6h8-10--6----10----8----------------------------------
B-------8---------------------------------------6-------------------------
G--8----------------------------------------------------------------------
D-------------------------------------------------------------------------
A-------------------------------------------------------------------------
E-------------------------------------------------------------------------


______________________________________________________________________________________


e--1------1--3------3--5--------8--6--5-----------------------------------
B-----1---------1----------6-------------8--------------------------------
G-------------------------------------------------------------------------
D-------------------------------------------------------------------------
A-------------------------------------------------------------------------
E------------------------------------------------------------------------- x2

e--6------6--8------8--10---------13--11--10--8L----------11--10--8-------
B-----6---------6-----------11--------------------------------------------
G-------------------------------------------------------------------------
D-------------------------------------------------------------------------
A-------------------------------------------------------------------------
E-------------------------------------------------------------------------

e--6------6--8------8--10---------11--10------8---------------------------
B-----6---------6-----------11------------11------------------------------
G-------------------------------------------------------------------------
D-------------------------------------------------------------------------
A-------------------------------------------------------------------------
E-------------------------------------------------------------------------
______________________________________________________________________________________


e------------3----1----0---------1----------------------------------------
B-------1-------------------3---------------------------------------------
G--0----------------------------------------------------------------------
D-------------------------------------------------------------------------
A-------------------------------------------------------------------------
E-------------------------------------------------------------------------

e--5----7----8------------------------------------------------------------
B-----------------8----6----5----3----------------------------------------
G-------------------------------------------------------------------------
D-------------------------------------------------------------------------
A-------------------------------------------------------------------------
E-------------------------------------------------------------------------

e-------3---------3-------------------------------------------------------
B--1---------1-------------1----------------------------------------------
G-------------------------------------------------------------------------
D-------------------------------------------------------------------------
A-------------------------------------------------------------------------
E-------------------------------------------------------------------------

e--5----7----8------------------------------------------------------------
B-----------------8----6----5----3----------------------------------------
G-------------------------------------------------------------------------
D-------------------------------------------------------------------------
A-------------------------------------------------------------------------
E-------------------------------------------------------------------------

Repeat this section twice, but the second time, play this alternate version of the last measure:

e--5----7----8.---8.-------10.--------------------------------------------
B-------------------------------------------------------------------------
G-------------------------------------------------------------------------
D-------------------------------------------------------------------------
A-------------------------------------------------------------------------
E-------------------------------------------------------------------------


______________________________________________________________________________________


e--8------8--11--10--8--10---------13--11--10--------15-------------------
B----------------------------11----------------13-------------------------
G-----8-------------------------------------------------------------------
D-------------------------------------------------------------------------
A-------------------------------------------------------------------------
E-------------------------------------------------------------------------

e--8------8--11--10--8--10---------13--15--13--12-------------------------
B----------------------------11----------------------13-------------------
G-----8-------------------------------------------------------------------
D-------------------------------------------------------------------------
A-------------------------------------------------------------------------
E-------------------------------------------------------------------------


e--8------8--11--10--8--10---------13--11--10--------15-------------------
B----------------------------11----------------13-------------------------
G-----8-------------------------------------------------------------------
D-------------------------------------------------------------------------
A-------------------------------------------------------------------------
E-------------------------------------------------------------------------

e--8------8--11--10--8--10---------13--11--10-----------------------------
B----------------------------11----------------13-------------------------
G-----8-------------------------------------------------------------------
D-------------------------------------------------------------------------
A-------------------------------------------------------------------------
E-------------------------------------------------------------------------

______________________________________________________________________________________


e--------------13----12---------------------------------------------------
B--13----15----------------13----13s15----13------------------------------
G-------------------------------------------------------------------------
D-------------------------------------------------------------------------
A-------------------------------------------------------------------------
E-------------------------------------------------------------------------

e--------------13----12----------15---------------------------------------
B--13----15----------------13---------------------------------------------
G-------------------------------------------------------------------------
D-------------------------------------------------------------------------
A-------------------------------------------------------------------------
E-------------------------------------------------------------------------

e--------------13----12---------------------------------------------------
B--13----15----------------13----13s15----13------------------------------
G-------------------------------------------------------------------------
D-------------------------------------------------------------------------
A-------------------------------------------------------------------------
E-------------------------------------------------------------------------

e--------------13----12--------15-----------------------------------------
B--13----15---------------------------------------------------------------
G-------------------------------------------------------------------------
D-------------------------------------------------------------------------
A-------------------------------------------------------------------------
E-------------------------------------------------------------------------
Login or Register to remove this ad.