Ads

Translucent Plain (Venus the Flytrap) Guitar Tab

Submitted: May 09, 2012 by diralark

0
Download | Listen
Game: Venus the Flytrap
Composer(s): Ben Daglish
Style: Arrangement, Fingerstyle

AutoScroll: Slow | Medium | Fast
                Translucent Plain  -  Venus The Flytrap  (Atari ST / Amiga)

 Music by Ben Daglish >> sequenced by Magnus Andersson >> Guitar arr. by Diralark

 Ost : http://www.youtube.com/watch?feature=player_detailpage&v=1K0IW2tVasM#t=2...

 
Guitar, let ring, tempo 106

      Q    Q    E  E   E   E     Q    Q    E  E   E  E     Q    Q    E   E  E  E   
E||---------------------------|-------------------------|--0----------------------|
B||----------------0h--1p--0--|---------------0h--1--3--|-------3----1p--0-----1--|
G||*--2---------2-------------|--2---------2------------|-------------------2-----|
D||*-------2------------------|-------2-----------------|--3----------------------|
A||---------------------------|-------------------------|-------------------------|
E||---------------------------|-------------------------|-------------------------|


  Q    Q    E   E  E   E        Q    Q    E  E   E   E     Q    Q    E  E   E  E   
---------------------------||---------------------------|----------------------0--|
--0---------1p--0--1p--0---||----------------2h--3p--2--|---------------2h--3-----|
--0----2------------------*||*--4---------4-------------|--4---------4------------|
--------------------------*||*-------4------------------|-------4-----------------|
---------------------------||---------------------------|-------------------------|
---------------------------||---------------------------|-------------------------|


                            II                                                     
  Q    Q    E   E  E  E     Q    Q    E   E  E   E        Q    Q    E  E   E   E   
--2----0-----------------|---------------------------||---------------------------|
------------3p--2-----3--|--2---------3p--2--3p--2---||----------------0h--1p--0--|
--0----------------4-----|--2----4------------------*||*--2---------2-------------|
-------------------------|--------------------------*||*-------2------------------|
-------------------------|---------------------------||---0-----------------------|
-------------------------|---------------------------||---------------------------|


  Q    Q    E  E   E  E     Q    Q    E   E  E  E     Q    Q    E   E  E   E     
-------------------------|--0----------------------|---------------------------||
---------------0h--1--3--|-------3----1p--0-----1--|--0---------1p--0--1p--0---||
--2---------2------------|-------------------2-----|--0----2------------------*||
-------2-----------------|--3----------------------|--------------------------*||
--0----------------------|-------------------------|---------------------------||
-------------------------|--1----------------------|--3------------------------||


   II                         --               -]                               
   Q    Q    E  E   E   E     Q    Q    E  E   E  E     Q    Q    E   E  E  E   
---------------------------|----------------------0--|--2----0-----------------|
----------------2h--3p--2--|---------------2h--3-----|------------3p--2-----3--|
*--4---------4-------------|--4---------4------------|--0----------------4-----|
*-------4------------------|-------4-----------------|-------------------------|
---2-----------------------|--2----------------------|-------------------------|
---------------------------|-------------------------|--3----------------------|

1._______________            2.________________
  II                                                     
  Q    Q    E   E  E   E       Q    Q    E   E  E   E    
---------------------------||--------------------------||
--2---------3p--2--3p--2---||--2---------3p--2--3p--2--||
--2----4------------------*||--2----4------------------||
--------------------------*||--------------------------||
--0------------------------||--0-----------------------||
---------------------------||--------------------------||

Legend
-------
Q - quarter
E - 8th
L - tied note
h - hammer on
p - pull off
Login or Register to remove this ad.