Ads

Suna no Oshiro (Vampire Knight Guilty) Guitar Tab

Submitted: Oct 16, 2011 by xblitzk

0
Download | Listen
Game: Vampire Knight Guilty
Composer(s): Mana, Takefumi Haketa
Style: 2 or more instruments, Tapping, Transcription

AutoScroll: Slow | Medium | Fast
Name of song: Suna no oshiro
Name of game/anime: Vampire Knight Guilty - Ending
Composer of song: Kanon Wakeshima
Name of tabber: Xblitzk
Date tab was made: 13/10/2011

Eb scale: Eb F G Ab Bb C D

Guitarra 1

E -----------------6--------- --------------------------- X2
B --------8---8-8-----8--9~-- ---8----8---8----------8---
G /7----7-------------------- 10-------------10---8----10
D --------------------------- ---------------------------
A --------------------------- ---------------------------
E --------------------------- ---------------------------

E ----10-------------------------------------------------
B 12---------------------------------12---------/12-15-13
G -------(12p5h8)x5(13p7h10)x4-7-10--8-------------------
D -----------------------------------12------------------
A -------------------------------------------------------
E -------------------------------------------------------

 (Tap 12 pull of to 5 and hammer on 8, five times then change to (13p7h10 same explanation)) Repeat this

E ----------- ---------------------------------
B 13-12------ 15-13-12---12--------------------
G ------14-10 --------------14-12-10---12-10-9-
D ----------- ---------------------------------
A ----------- ---------------------------------
E ----------- ---------------------------------

E -----------------------------------
B ------------12-10-13---12-13-14----
G 10-10-10-------------------------14
D -----------------------------------
A -----------------------------------
E -----------------------------------

E ----------- ---------------------------------
B 13-12------ 15-13-12---12--------------------
G ------14-10 --------------14-12-10---12-10-9-
D ----------- ---------------------------------
A ----------- ---------------------------------
E ----------- ---------------------------------

E --------------------------------12-
B ------------12-10-13---12-13-14----
G 10-10-10---------------------------
D -----------------------------------
A -----------------------------------
E -----------------------------------

E ---------------------------23-20-19----20
B -----------------------------------------
G 17----20-17-16---17-19-17----------------
D -----------------------------------------
A -----------------------------------------
E -----------------------------------------

Guitarra 2

E ---------------------------------------------------------------------------
B ---------------------------------------------------------------------------
G ---------------------------------------------------------------------------
D ---------------------------------------------------------------------------
A 10-3-6-10-3-6-10-3-6-10-3-6-10-3-6-10s11-5-8-11-5-8-11-5-8-11-5-8-11-5-8-6-
E ---------------------------------------------------------------------------

E ----------------------- --------15
B ----------------------- 15--15----
G ----------------------- ----------
D ----------------------- ----------
A 3-----5--8--6---10---11 ----------
E ----------------------- ----------

  C-----F--Ab-G--------Ab
  C-----D--F--Eb--G----Ab


E ----------------------------
B ----------6-8-9------------9
G ----------------------------
D -----------------9---------6
A 6--5----------------3--6----
E ----------------------------



<- Misma melodia que guitarra 1, I don't know how to harmonize so I played the same as guitar 1 xd->

E --------
B 12-15-13
G --------
D --------
A --------
E --------

E ----------- ---------------------------------
B 13-12------ 15-13-12---12--------------------
G ------14-10 --------------14-12-10---12-10-9-
D ----------- ---------------------------------
A ----------- ---------------------------------
E ----------- ---------------------------------

E -----------------------------------
B ------------12-10-13---12-13-14----
G 10-10-10-------------------------14
D -----------------------------------
A -----------------------------------
E -----------------------------------

E ----------- ---------------------------------
B 13-12------ 15-13-12---12--------------------
G ------14-10 --------------14-12-10---12-10-9-
D ----------- ---------------------------------
A ----------- ---------------------------------
E ----------- ---------------------------------

E --------------------------------12-
B ------------12-10-13---12-13-14----
G 10-10-10---------------------------
D -----------------------------------
A -----------------------------------
E -----------------------------------


E ----------------------------(15p8h11)x5(16p10h13)x ends with 10~~~~
B -------------------------------------------------
G (12p5h8)x5(13p7h10)x4-7-10-----------------------
D -------------------------------------------------
A -------------------------------------------------
E -------------------------------------------------
Login or Register to remove this ad.