Ads

Series Main Theme ~Guitar ver.~ (Valkyria Chronicles III) Guitar Tab

Submitted: Mar 18, 2017 by Coolbreeze (Last updated: Jul 12, 2017)

0
Download | Listen
Game: Valkyria Chronicles III
Composer(s): Hitohi Sakimoto
Style: 2 or more instruments, Transcription
Series: Valkyria Chronicles

AutoScroll: Slow | Medium | Fast
				Series Main Theme ~Guitar ver.~
				    ~Senjou no Valkyria 3~

Music by Kimihiro Abe
Performed by Mitsuhiro Ohta
Tabbed by Coolbreeze
Tempo = 84

Standard Tuning


Guitar 1

     Q    Q    E  E  Q       W                   Q    Q    E  E  Q     
E||-------0---------------|-------------------|-------0---------------|
B||------------3----------|-------------------|------------3----------|
G||---------------2--2----|--L----------------|---------------2--2----|
D||-----------------------|-------------------|-----------------------|
A||-----------------------|-------------------|-----------------------|
E||-----------------------|-------------------|-----------------------|


  Q    S  E.  Q    E  E     H.           E  E     E  S S  Q    E  E  Q     
-------3s-5---5----3-----|------------------0--|--2--3-3s-5----3--2-------|
--3-------------------3--|---------------3-----|---------------------3----|
-------------------------|---------------------|--------------------------|
-------------------------|---------------------|--------------------------|
-------------------------|---------------------|--------------------------|
-------------------------|---------------------|--------------------------|


  Q    H.              Q    Q    E  E  Q       W                 
--0-----------------|-------0---------------|-------------------|
--------------------|------------3----------|-------------------|
-------2------------|---------------2--2----|--L----------------|
--------------------|-----------------------|-------------------|
--------------------|-----------------------|-------------------|
--------------------|-----------------------|-------------------|


  Q    Q    E  E  Q       Q    S  E.  Q    E  E     H.           E  E   
-------0---------------|-------3h-5---5----3-----|------------------0--|
------------3----------|--3-------------------3--|---------------3-----|
---------------2--2----|-------------------------|---------------------|
-----------------------|-------------------------|---------------------|
-----------------------|-------------------------|---------------------|
-----------------------|-------------------------|---------------------|


  E  E  E   Q.     E  E     Q    Q    H           H.           Q     
--2--3--3s--5------3--2--|-------2-------------|--------------------|
-------------------------|--3------------------|---------------0----|
-------------------------|---------------------|--------------------|
-------------------------|---------------------|--------------------|
-------------------------|---------------------|--------------------|
-------------------------|---------------------|--------------------|


  Q    Q    E  E  Q       H        Q    E   E     Q    Q    E  E  Q     
--0---------0--2--3----|--3--------2-----------|--5---------5--7--8----|
-------3---------------|----------------3s--7--|-------5---------------|
-----------------------|-----------------------|-----------------------|
-----------------------|-----------------------|-----------------------|
-----------------------|-----------------------|-----------------------|
-----------------------|-----------------------|-----------------------|


  H        Q    Q       H        E  E  Q       E   E  Q    Q    Q     
--8--------7----3----|--0--------0--2--3----|--3s--5--2---------2----|
---------------------|----------------------|--------------3---------|
---------------------|----------------------|------------------------|
---------------------|----------------------|------------------------|
---------------------|----------------------|------------------------|
---------------------|----------------------|------------------------|


  H        H           W                   H        E  E  Q     
--0-----------------|-------------------|--0--------0--2--3----|
--------------------|-------------------|----------------------|
--------------------|-------------------|----------------------|
--------------------|-------------------|----------------------|
--------------------|-------------------|----------------------|
--------------------|-------------------|----------------------|


  Q    Q    E  E  Q       H        E  E  Q       H        E  E  Q     
--3---------2--0-------|--5--------5--7--8----|--8--------7--5--3----|
------------------3----|----------------------|----------------------|
-----------------------|----------------------|----------------------|
-----------------------|----------------------|----------------------|
-----------------------|----------------------|----------------------|
-----------------------|----------------------|----------------------|


  H        E  E  Q       H        E  E  Q       H.           E  E   
--0--------0--1--3----|--1--------0----------|---------------------|
----------------------|--------------3-------|--3---------------3--|
----------------------|-----------------5----|---------------5-----|
----------------------|----------------------|---------------------|
----------------------|----------------------|---------------------|
----------------------|----------------------|---------------------|


  Q    H.              H        E  E  Q       H        E  E  Q     
-------0------------|--0--------0--2--3----|--3--------2--0-------|
--3-----------------|----------------------|-----------------3----|
--------------------|----------------------|----------------------|
--------------------|----------------------|----------------------|
--------------------|----------------------|----------------------|
--------------------|----------------------|----------------------|


  ^        ^                      ^              ^                           
  H        E  E  Q       H        E  E  Q        Q     E   E   E   E   Q     
--5--------5--7--8----|--8--------7--5-------|--12------------12--13--12----|
--6--------6----------|-----------5-----8----|--10--------10----------------|
-----------5----------|-----------5----------|--10----10--------------------|
----------------------|----------------------|------------------------------|
----------------------|----------------------|------------------------------|
----------------------|----------------------|------------------------------|


   H.            E  E     Q    E  E  E  Q.        E  E    E  Q.     E  E   
--10-------------8--7--|--5----7--5--3--5------|--------------------------|
--12------------10--8--|-----------------------|--3--5--5g7--5---------2--|
-----------------------|-----------------------|--------------------4-----|
-----------------------|-----------------------|--------------------------|
-----------------------|-----------------------|--------------------------|
-----------------------|-----------------------|--------------------------|


  E  Q.     Q    Q       Q    S S   E  Q    S S E     Q    S S E  Q    E  E   
----------------------|--2----2-3-3g5--5----3-2-0--|--2----0-2-0----------0--|
--3--2----------------|----------------------------|--------------3----------|
-----------------2----|----------------------------|-------------------------|
----------------------|----------------------------|-------------------------|
----------------------|----------------------------|-------------------------|
----------------------|----------------------------|-------------------------|


  Q    S S E  S   S  Q    S   S    Q    S S E  Q    Q     
--2----2-3-5--9h-10--L----9h-10-|--9----7-5-4--2----0----|
--------------------------------|------------------------|
--------------------------------|------------------------|
--------------------------------|------------------------|
--------------------------------|------------------------|
--------------------------------|------------------------|


  Q    S S S  S Q    S S E     Q    E  E  Q    S S E   
--5----2-3-3s-5-5----2-0----|--0----0--5--2----2-3-5--|
-------------------------3--|-------------------------|
----------------------------|-------------------------|
----------------------------|-------------------------|
----------------------------|-------------------------|
----------------------------|-------------------------|


    Q    S  S E  E.  E.  S S    Q    S  S E  S  E.  S S S S  
--8g9----9-10-9--7---5---5-4-|--4----4h-5-4---------5-4-2-0-|
-----------------------------|---------------5s-7-----------|
-----------------------------|------------------------------|
-----------------------------|------------------------------|
-----------------------------|------------------------------|
-----------------------------|------------------------------|


  E.  S E  E  E  Q     E      S   E.  S S E  Q    S S E   
--2---4-5--7--8--9----11--|--11s-12---0-2-4--4----2-0----|
--------------------------|---------------------------4--|
--------------------------|------------------------------|
--------------------------|------------------------------|
--------------------------|------------------------------|
--------------------------|------------------------------|


                ^                                                               
       |--3--|                                                                  
  Q    E  E  E  Q.      E     E  E  S  S E  E  E  E  S  S    H        H         
--0-------------9------11--|--7--4----------5--------2s-4-|--0-----------------|
-------5--7--9--9----------|--------7s-5-5-----1--2-------|--------------------|
----------------9----------|------------------------------|--------------------|
---------------------------|------------------------------|--------------------|
---------------------------|------------------------------|--------------------|
---------------------------|------------------------------|--------------------|


    E  E  S S E  E  E  S S E     E  E  S S E    H         
-------4--2---------4--2------|-----4--2-----------------|
--2g4-------2-2--4-------2-2--|--4-------2-2--2g4--------|
------------------------------|--------------------------|
------------------------------|--------------------------|
------------------------------|--------------------------|
------------------------------|--------------------------|


  E  E  S S E  E    E  S S E     E     E  S S  E  Q.      S S  
-----7--4---------7g9--6------|-----9g11--9-------------------|
--4-------4----4---------7----|-------------9-----------------|
------------6--------------6--|--8------------11--8---------8-|
------------------------------|--------------------------10---|
------------------------------|-------------------------------|
------------------------------|-------------------------------|


    E     E  S S  E  E  E  S S E       E  E  S S E  Q.     S S  
-------9g11--9----------9--7------|-------9--7-----------------|
--7g9----------9-----9-------9-7--|--7g9-------9-7---------2-4-|
-----------------11---------------|-----------------8----------|
----------------------------------|----------------------------|
----------------------------------|----------------------------|
----------------------------------|----------------------------|


  E  E  S S E  E  E  S S E     E  E  S S E  E  E  Q          Q    H.            
-----4--1---------4--2------|-----4--2------------4----|--6g11----6------------|
--4-------4-2--4-------4-2--|--4-------4-2--4--4-------|-----------------------|
----------------------------|--------------------------|-----------------------|
----------------------------|--------------------------|-----------------------|
----------------------------|--------------------------|-----------------------|
----------------------------|--------------------------|-----------------------|


  E  S S E   S   S  S  S  Q.        E   S  S  E   E  S S Q.      
-----7-7-7--10s-12-10------------|---------------10--8----------|
----------------------10-10------|-----10-10-10--------8-8------|
---------------------------------|------------------------------|
---------------------------------|------------------------------|
---------------------------------|------------------------------|
---------------------------------|------------------------------|


  E    S S E  E  S S Q    E     E  S S E  S  S S S Q.      
--------------8--7--------7--|--7---------4s-2-2----------|
-----7g8-8-8-------7-7-------|-----4-4-4---------2-2------|
-----------------------------|----------------------------|
-----------------------------|----------------------------|
-----------------------------|----------------------------|
-----------------------------|----------------------------|


  E  S S E   S   S  S  S  Q.        E   S  S  E   E  S S Q.      
-----7-7-7--10s-12-10------------|---------------10--8----------|
----------------------10-10------|-----10-10-10--------8-8------|
---------------------------------|------------------------------|
---------------------------------|------------------------------|
---------------------------------|------------------------------|
---------------------------------|------------------------------|


  E  S S E  E  S S Q    E     E   S  S  E    E   E  Q.      
------------8--7--------7--|--7--10-10-10s--15--14--9------|
-----8-8-8-------7-7-------|-------------------------------|
---------------------------|-------------------------------|
---------------------------|-------------------------------|
---------------------------|-------------------------------|
---------------------------|-------------------------------|


  Q    S S S  S Q    S S E     Q    S S E  Q.     E   
--2----2-3-3s-5-5----3-2-0--|--2----0-2-0---------0--|
----------------------------|--------------3---------|
----------------------------|------------------------|
----------------------------|------------------------|
----------------------------|------------------------|
----------------------------|------------------------|


                                                   ^     
  Q    S S E  S   S  Q    S  S    Q    S S E  Q    Q     
--2----2-3-5--9s-10--L----9-10-|--9----7-5-4--7----5----|
-------------------------------|--------------7----5----|
-------------------------------|------------------------|
-------------------------------|------------------------|
-------------------------------|------------------------|
-------------------------------|------------------------|


  Q    S S S  S Q    S S E     Q    E  E  Q    S S E   
--5----2-3-3s-5-5----2-0----|--0----0--5--2----2-3-5--|
-------------------------3--|-------------------------|
----------------------------|-------------------------|
----------------------------|-------------------------|
----------------------------|-------------------------|
----------------------------|-------------------------|


    Q    S  S E  E.  E.  S S    Q    S S E  S  E  S S S S S  
--8g9----9-10-9--7---5---5-4-|--4----4-5-4----------5-4-----|
-----------------------------|--------------5s-7--7-----7-5-|
-----------------------------|------------------------------|
-----------------------------|------------------------------|
-----------------------------|------------------------------|
-----------------------------|------------------------------|


  E.  S E  E  E  E    E   E      Q    S S E  Q    S S E   
------4-5--7--8--9s--10--11--|--12----0-2-4--4----2-0----|
--7--------------------------|------------------------4--|
-----------------------------|---------------------------|
-----------------------------|---------------------------|
-----------------------------|---------------------------|
-----------------------------|---------------------------|


                ^                                      
       |--3--|                                         
  Q    E  E  E  Q.      E     E  E  E  E  E  E  E  E   
----------------9------11--|--7-----------------------|
--5----5--7--9--9----------|-----9--7-----9-----5--7--|
----------------9----------|-----------9-----6--------|
---------------------------|--------------------------|
---------------------------|--------------------------|
---------------------------|--------------------------|


  E  E  E  E    E  E  E  E     E  E  E  E  E  E  E  E   
--7--4--------7g9-----7-----|--7-----------4-----------|
--------7--5-------9-----7--|-----9--7--5--------5--4--|
----------------------------|-----------------6--------|
----------------------------|--------------------------|
----------------------------|--------------------------|
----------------------------|--------------------------|


                |--3--|                                              
  H        Q    E  E  E     Q     H.              Q    H.            
----------------0--2--4--|--7----12------------|--------------------|
--5----------------------|---------------------|--------------------|
-------------------------|---------------------|-------9------------|
-------------------------|---------------------|--------------------|
-------------------------|---------------------|--------------------|
-------------------------|---------------------|--------------------|


   Q     H.              Q    H.               S   E.   H.            
--------12------------|--------------------|-----------12------------|
--12------------------|--------------------|--10s-12-----------------|
----------------------|-------9------------|-------------------------|
----------------------|--------------------|-------------------------|
----------------------|--------------------|-------------------------|
----------------------|--------------------|-------------------------|


  Q    H.               Q     H.              H.            Q     
--------------------|--------12------------|---------------12----|
--------------------|--12------------------|---------------------|
-------9------------|----------------------|---------------------|
--------------------|----------------------|---------------------|
--------------------|----------------------|---------------------|
--------------------|----------------------|---------------------|


  W                  
--L----------------||
-------------------||
-------------------||
-------------------||
-------------------||
-------------------||




Guitar 2

     ^                                       ^                 
     W                   W                   W                 
E||-------------------|-------------------|-------------------|
B||--0----------------|--L----------------|--0----------------|
G||--0----------------|--L----------------|--0----------------|
D||--0----------------|--L----------------|--0----------------|
A||--7----------------|--L----------------|--7----------------|
E||--0----------------|--L----------------|--0----------------|


                       ^                        ^         ^         
  H        H           E  E  E  E  Q    Q       Q.     E  H         
--------------------|--0-----------0---------|---------------------|
--L-----------------|--0--------0------------|--1---------0--------|
--L-----------------|--0-----0---------------|--2---------0--------|
--L-----------------|-----2------------------|--0------------------|
--L--------2--------|--3---------------------|---------3--L--------|
--L-----------------|------------------------|---------------------|


                      ^                                       ^                 
  W                   W                   W                   W                 
-------------------|-------------------|-------------------|-------------------|
--L----------------|--0----------------|--L----------------|--0----------------|
--L----------------|--0----------------|--L----------------|--2----------------|
-------------------|--0----------------|--L----------------|--3----------------|
--L----------------|--7----------------|--L----------------|--3----------------|
-------------------|--0----------------|--L----------------|--1----------------|


                       ^                   ^                 
  Q    H.              W                   W                 
--------------------|--0----------------|-------------------|
--------------------|--0----------------|-------------------|
--------------------|--0----------------|--5----------------|
--------------------|-------------------|--5----------------|
--2-----------------|--3----------------|--0----------------|
--------------------|-------------------|-------------------|


           ^                                                 
  H        H           W                   W                 
-----------0--------|--L----------------|-------------------|
-----------0--------|--L----------------|-------------------|
-----------1--------|--L----------------|-------------------|
-----------2--------|--L----------------|-------------------|
--2--------2--------|--L----------------|--0----------------|
-----------0--------|--L----------------|-------------------|


  ^                   ^                   ^                  
  W                   W                   H        H         
-------------------|--0----------------|--2-----------------|
-------------------|--1----------------|--1-----------------|
--5----------------|-------------------|--------------------|
--5----------------|-------------------|--------------------|
--0----------------|--0----------------|--0-----------------|
-------------------|-------------------|--------------------|


            ^            ^                                         
  Q    Q    Q.     E     H        H           Q    Q    Q    Q     
----------------------|--------------------|----------------------|
------------1---------|--1-----------------|-----------------0----|
------------2------0--|--0-----------------|------------2---------|
-------2--------------|--------------------|-------2--------------|
--0-------------------|--0-----------------|--0-------------------|
----------------------|--------------------|----------------------|


  ^                                                      ^          
  Q    H.              E  E  E  H        E     Q    Q    Q    Q     
--------------------|-----------------------|----------------------|
--1----3------------|-----------0-----------|------------1---------|
--2----2------------|--------0-----------0--|-------0----0---------|
-------4------------|-----2-----------------|----------------------|
--0-----------------|--3--------------------|--0-------------------|
--------------------|-----------------------|----------------------|


                                     ^                       ^          
  E  E  E  E  H           E  E  Q    Q    Q       E  E  Q    Q    Q     
--1-----1--------------|--------0----0---------|-----------------------|
-----1-----1-----------|-----1-------0---------|--------3----3---------|
-----------------------|-----------------------|-----3-------3---------|
--0--------------------|--2--------------------|--0--------------------|
-----------------------|-----------------------|-----------------------|
-----------------------|-----------------------|-----------------------|


                                                  ^             
  Q    Q    Q    Q       W                   Q    H.            
----------------------|-------------------|--------------------|
----------------------|-------------------|-------0------------|
-------3----3---------|--5----------------|-------1------------|
----------------------|-------------------|--------------------|
----------------------|-------------------|--------------------|
--3-------------------|--4----------------|-------0------------|


                          ^                                          
  E  E  E  E  H           Q.     Q.     Q       Q    Q    Q    Q     
--0--------------------|---------------------|----------------------|
--1--------1-----------|--0------------------|------------1---------|
--------0--------------|--0------0-----------|-------2--------------|
-----2-----------------|---------------------|--3-------------------|
--0--------------------|---------------------|----------------------|
-----------------------|--0------------------|----------------------|


  H        H           W                   W                 
--------------------|-------------------|-------------------|
-----------1--------|-------------------|-------------------|
--------------------|-------------------|-------------------|
--------------------|--0----------------|-------------------|
--0-----------------|-------------------|-------------------|
--------------------|-------------------|--0----------------|


  ^                                                          
  W                   W                   H        H         
--0----------------|-------------------|--------------------|
--1----------------|-------------------|--------------------|
-------------------|-------------------|--------------------|
-------------------|-------------------|--------------------|
--0----------------|-------------------|--0-----------------|
-------------------|-------------------|--------------------|


  ^                                                 
  H        E  S E  S E     E  S E  E.  E  S E  E.   
--2--------0-------0-0--|--2-------------------0---|
--3--------1----1-------|-------3-----------3------|
--2-----------2------0--|-----4----4------4--------|
--0---------------------|--------------0-----------|
-----------3------------|--------------------------|
------------------------|--------------------------|


                                            ^         
  S S S E.  E  E  S E  S E     S S S E.  E  H         
--------0-----------2-------|--------2---------------|
------1-------------3-------|--------0------2--------|
----3-------3-----2----2----|------1--------0--------|
-------------------------4--|----0-------------------|
--3------------2------------|---------------0--------|
----------------------------|--0---------------------|


  E  S E  E  S E  S E  E  S    S S S E  S E  S S S E  S E   
-------0------------0-------|--------2-------------2-------|
-------0------------2-------|------3----3----------2--3----|
-----0----0--0----0----0--0-|----2--------2------2------2--|
----------------------------|------------------4-----------|
---------------0------------|----------------2-------------|
--0-------------------------|--2---------------------------|


  S S S E  S E  S S S E  S E     S S S E  S E  S S S E  S E   
----------------------1-------|----------------------2-------|
--------3-----------2----2----|--------2-----------2----2----|
------4----4------2--------2--|------2----2------2--------2--|
----4--------4--3-------------|----2-----------1-------------|
------------------------------|------------------------------|
--4---------------------------|--0---------------------------|


  ^        ^                                                         ^         
  H        Q.     E     S  E  E  S E  S S S E  S E     S S S E  S E  H         
-----------4---------|--------4---------------------|----------------0--------|
--2--------4------4--|--4h-5-----5----------4-------|--------0-------2--------|
--2--------5------5--|-------------4------2----2----|------1-1--1----1--------|
--0--------4---------|------------------4--------4--|----2--------2--2--------|
-----------6---------|--4-------------3-------------|--2-------------0--------|
-----------4---------|------------------------------|-------------------------|


  ^         ^    ^       ^                     ^        ^         
  Q    Q    Q    Q       Q.     E  H           H        H         
-------0--------------|--0------0--0--------|--------------------|
--4----0----2----2----|--0------------------|-----------2--------|
--4----1----2----2----|--1------------------|--4--------3--------|
--4---------2---------|--2------------------|--6--------4--------|
--2----2----0----2----|--2------------------|--4-----------------|
----------------------|--0------------------|--------------------|


  ^        ^           ^        ^           ^        ^         
  H        H           H        H           H        H         
--------------------|--------------------|--------------------|
-----------4--------|--4-----------------|--4--------4--------|
--4--------4--------|--4--------3--------|--3--------5--------|
--4--------4--------|--6--------4--------|--4--------4--------|
--2-----------------|--4-----------------|--2-----------------|
-----------4--------|-----------2--------|-----------4--------|


  ^        ^           ^        ^           ^                  
  H        H           H        H           H        H         
--------------------|--------------------|--------------------|
--0--------2--------|--2--------4--------|--------------------|
--1--------3--------|--2--------4--------|--4--------3--------|
--2--------4--------|--4--------6--------|--6--------2--------|
--2--------4--------|--2-----------------|--4-----------------|
--0-----------------|-----------4--------|-----------4--------|


  ^                                       ^                  
  W                   W                   H        H         
-------------------|-------------------|--3-----------------|
-------------------|-------------------|--3--------3--------|
--3----------------|-------------------|--4-----------------|
--4----------------|-------------------|--5--------4--------|
-------------------|-------------------|--------------------|
--2----------------|-------------------|--------------------|


  ^                             ^           ^                            
  H        H           H        H           H        E  T  S S S S S  T  
--1-----------------|--------------------|--4---------------------------|
--3--------1--------|--1--------0--------|--4---------------------------|
--2-----------------|--0--------2--------|--4------------------4--------|
--3--------2--------|-----------1--------|--6-----------4s-6-6---6-4s-2-|
--------------------|--0--------2--------|------------------------------|
--------------------|--------------------|------------------------------|


  S S S E  S E  E  S E  S E     E  S E  S E  E  S E  S E   
-----------0---------2-------|-------2------------0-------|
--------0-------3-------3----|----------3---------1-------|
------0------0-----2------2--|-----2------2-----0----0----|
----2------------------------|----------------------------|
--3-------------2------------|--1------------0---------0--|
-----------------------------|----------------------------|


  S S S E  S S S E  S E  S S S    S S S E  E  S S S S E  S E   
-------------------------------|----------------------0-------|
------1-4--1---1------4--------|------0-3---------------------|
------0------0------4----4---4-|-----------0--0---0-3----3-0--|
---------------------------4---|----2-------------------------|
----3--------------------------|----------------4-------------|
--4--------------4-------------|--0---------------------------|


  S S S E  S E  S S S S S S E     S S S S S S E  S S S E  E  S  
--------0-------2-----0-0------|--------3----------------------|
------3----3--------1-----1----|------------0------0---3-------|
----2--------2----2---------2--|------0---0---0------0----0--0-|
--0-------------0--------------|----0------------0-------------|
-------------------------------|-------------------------------|
-------------------------------|--3----------------------------|


                                 ^        ^         
  S S S E  E  S S S S E  S E     H        H         
----------------------2-------|-----------0--------|
--------1-------------3-------|--5--------2--------|
------3----2--1-----2----2----|--4--------0--------|
----2-------------4-----------|--6--------2--------|
--3-------------2-------------|--4--------0--------|
------------------------------|--4-----------------|


  E  S E  E  S S S S E  E  S    S S S E  S E  S S S E  S E   
-------0-------------0-------|--------2-------------2-------|
-------0-------------2-------|------3----3----------2--3----|
-----0----0--0-----0----0--0-|----2--------2------2------2--|
-----------------2-----------|------------------4-----------|
---------------0-------------|----------------2-------------|
--0--------------------------|--2---------------------------|


  S S S E  S E  S S S E  S E     S S S E  E.  S S S E  S E   
----------------------1-------|---------------------2-------|
--------3-----------2----2----|--------2----------2----2----|
------4----4------2--------2--|------2----2-----2--------2--|
----4--------4--3-------------|----2----------1-------------|
------------------------------|-----------------------------|
--4---------------------------|--0--------------------------|


  ^        ^                                                         ^         
  H        Q.     E     S S S E  S E  S S S E  S E     S S S E  S E  H         
-----------4---------|--------4---------------------|--------0-------0--------|
--2--------4------4--|----4-5----5----------4-------|--------0-------2--------|
--2--------5------4--|-------------4------2----2----|------1----1----1--------|
--0--------4---------|------------------4--------4--|----2-----------2--------|
-----------6---------|--4-------------3-------------|--2----------4--0--------|
-----------4---------|------------------------------|-------------------------|


  ^    ^         ^       ^         ^                           ^     
  Q    Q    Q    Q       Q    Q    Q    Q       Q    Q    Q    Q     
----------------------|----------------------|----------------------|
-------5----2----1----|--0----2----2----4----|--5----2---------1----|
--4----6----2----2----|--1----2----2----2----|--4----2----1----2----|
--4----6----2---------|--2---------2----4----|--6----4---------1----|
--2----4----4----2----|-------0----4----2----|--4---------0----2----|
----------------------|----------------------|----------------------|


  ^                     ^                   ^                 
  Q.     E  H           W                   W                 
--0------0--0--------|-------------------|-------------------|
--0------------------|--1----------------|-------------------|
--1------------------|--0----------------|--4----------------|
--2------------------|--2----------------|--4----------------|
--2------------------|--0----------------|-------------------|
---------------------|-------------------|--4----------------|


  ^                   ^                   ^                   ^                 
  W                   W                   W                   W                 
--0----------------|-------------------|--0----------------|-------------------|
--0----------------|--0----------------|--0----------------|--0----------------|
--0----------------|--0----------------|--2----------------|--0----------------|
-------------------|-------------------|-------------------|-------------------|
-------------------|--3----------------|-------------------|--3----------------|
--3----------------|-------------------|--2----------------|-------------------|


  ^                              ^                              
  W                   Q    Q     H           W                  
--0----------------|----------------------|-------------------||
--1----------------|------------12--------|--L----------------||
--2----------------|------------11--------|--L----------------||
--0----------------|------------11--------|--L----------------||
-------------------|----------------------|-------------------||
-------------------|-------0-----L--------|--L----------------||
Login or Register to remove this ad.