Login or Register to remove this ad.

Main Theme (Valkyria Chronicles III) Guitar Tab

Submitted: Mar 18, 2017 by Coolbreeze

0
Download | Listen
Game: Valkyria Chronicles III
Composer(s): Hitohi Sakimoto
Style: Arrangement, Fingerstyle
Series: Valkyria Chronicles

AutoScroll: Slow | Medium | Fast
			Main Theme (Guitar Ver.)
			~Senjou no Valkyria 3~

Music by Kimihiro Abe
Tabbed by Coolbreeze
Tempo = 84

Guitar 1


     Q    Q    E  E  Q       W                   Q    Q    E  E  Q     
E||-------0---------------|-------------------|-------0---------------|
B||------------3----------|-------------------|------------3----------|
G||---------------2--2----|--L----------------|---------------2--2----|
D||-----------------------|-------------------|-----------------------|
A||-----------------------|-------------------|-----------------------|
E||-----------------------|-------------------|-----------------------|


  Q    S  E.  Q    E  E     H.           E  E     E  S S  Q    E  E  Q     
-------3h-5---5----3-----|------------------0--|--2--3-3h-5----3--2-------|
--3-------------------3--|---------------3-----|---------------------3----|
-------------------------|---------------------|--------------------------|
-------------------------|---------------------|--------------------------|
-------------------------|---------------------|--------------------------|
-------------------------|---------------------|--------------------------|


  Q    H.              Q    Q    E  E  Q       W                 
--0-----------------|-------0---------------|-------------------|
--------------------|------------3----------|-------------------|
-------2------------|---------------2--2----|--L----------------|
--------------------|-----------------------|-------------------|
--------------------|-----------------------|-------------------|
--------------------|-----------------------|-------------------|


  Q    Q    E  E  Q       Q    S  E.  Q    E  E     H.           E  E   
-------0---------------|-------3h-5---5----3-----|------------------0--|
------------3----------|--3-------------------3--|---------------3-----|
---------------2--2----|-------------------------|---------------------|
-----------------------|-------------------------|---------------------|
-----------------------|-------------------------|---------------------|
-----------------------|-------------------------|---------------------|


  E  E  E   Q.     E  E     Q    Q    H           H.           Q     
--2--3--3s--5------3--2--|-------2-------------|--------------------|
-------------------------|--3------------------|---------------0----|
-------------------------|---------------------|--------------------|
-------------------------|---------------------|--------------------|
-------------------------|---------------------|--------------------|
-------------------------|---------------------|--------------------|


  Q    Q    E  E  Q       H        Q    E   E     Q    Q    E  E  Q     
--0---------0--2--3----|--3--------2-----------|--5---------5--7--8----|
-------3---------------|----------------3s--7--|-------5---------------|
-----------------------|-----------------------|-----------------------|
-----------------------|-----------------------|-----------------------|
-----------------------|-----------------------|-----------------------|
-----------------------|-----------------------|-----------------------|


  H        Q    Q       H        E  E  Q       E   E  Q    Q    Q     
--8--------7----3----|--0--------0--2--3----|--3h--4--2---------2----|
---------------------|----------------------|--------------3---------|
---------------------|----------------------|------------------------|
---------------------|----------------------|------------------------|
---------------------|----------------------|------------------------|
---------------------|----------------------|------------------------|


  H        H           W                   H        E  E  Q     
--0-----------------|-------------------|--0--------0--2--3----|
--------------------|-------------------|----------------------|
--------------------|-------------------|----------------------|
--------------------|-------------------|----------------------|
--------------------|-------------------|----------------------|
--------------------|-------------------|----------------------|


  Q    Q    E  E  Q       H        E  E  Q       H        E  E  Q     
--3---------2--0-------|--5--------5--7--8----|--8--------7--5--3----|
------------------3----|----------------------|----------------------|
-----------------------|----------------------|----------------------|
-----------------------|----------------------|----------------------|
-----------------------|----------------------|----------------------|
-----------------------|----------------------|----------------------|


  H        E  E  Q       H        E  E  Q       H.           E  E   
--0--------0--1--3----|--1--------0----------|---------------------|
----------------------|--------------3-------|--3---------------3--|
----------------------|-----------------5----|--5------------5-----|
----------------------|----------------------|---------------------|
----------------------|----------------------|---------------------|
----------------------|----------------------|--4------------------|


  Q    H.              H        E  E  Q       H        E  E  Q     
--------------------|-----------0--2--3----|--3--------2--0-------|
--3-----------------|----------------------|-----------------3----|
--------------------|----------------------|----------------------|
--------------------|----------------------|----------------------|
--------------------|----------------------|----------------------|
--------------------|----------------------|----------------------|


  ^        ^                      ^              ^                           
  H        E  E  Q       H        E  E  Q        Q     E   E   E   E   Q     
--5--------5--7--8----|--8--------7--5-------|--12------------12--13--12----|
--6--------6----------|-----------5-----8----|--10--------10----------------|
-----------5----------|-----------5----------|--10----10--------------------|
----------------------|----------------------|------------------------------|
----------------------|----------------------|------------------------------|
----------------------|----------------------|------------------------------|


   H.            E  E     Q    E  E  E  Q.        E  E    E  Q.     E  E   
--10-------------8--7--|--5----7--5--3--5------|--------------------------|
--12------------10--8--|-----------------------|--3--5--5g7--5---------2--|
-----------------------|-----------------------|--------------------4-----|
-----------------------|-----------------------|--------------------------|
-----------------------|-----------------------|--------------------------|
-----------------------|-----------------------|--------------------------|


  E  Q.     H           Q    S S   E  Q    S E.     E  S S S S E  E  S E  S E   
---------------------|-------2-3-3g5--5----3-2---|--2------0-2-0----------0-0--|
--3--2---------------|---------------------------|-------3--------3----3-------|
---------------------|---------------------------|-----4-------------4---------|
---------------------|---------------------------|-----------------------------|
---------------------|---------------------------|-----------------------------|
---------------------|---------------------------|-----------------------------|


  Q    S S E  S   S  Q    S   S    Q    S S E  Q    Q     
--2----2-3-5--9h-10--L----9h-10-|--9----7-5-4--2----0----|
--------------------------------|------------------------|
--------------------------------|------------------------|
--------------------------------|------------------------|
--------------------------------|------------------------|
--------------------------------|------------------------|


  Q    S S S  S Q    S S E     Q    E  E  Q    S S E   
--5----2-3-3h-5-5----2-0----|--0----0--5--2----2-3-5--|
-------------------------3--|-------------------------|
----------------------------|-------------------------|
----------------------------|-------------------------|
----------------------------|-------------------------|
----------------------------|-------------------------|


    E.   S S  S E  E.  E.  S S    Q    S  S E  S  E  S S S S S  
--8g9---10-9-10-9--7---5---5-4-|--4----4h-5-4--0h-2--2-5-3-2-0-|
-------------------------------|-------------------------------|
-------------------------------|-------------------------------|
-------------------------------|-------------------------------|
-------------------------------|-------------------------------|
-------------------------------|-------------------------------|


  Q    S S E  E  Q     E      E.  E.  E  Q    S E.   
--2----4-5-7--8--9----11--|--11---4---4--4----2-0---|
--------------------------|-------------------------|
--------------------------|-------------------------|
--------------------------|-------------------------|
--------------------------|-------------------------|
--------------------------|-------------------------|


  E.  S E  S S Q    E   E     E  E  S  S E  Q    E  S S    Q.     E  H         
--0---0-0------9----9--11--|--7--4--2p-0-0--5----2--2-4-|---------0--0--------|
-----------7-9-------------|----------------------------|---------------------|
---------------------------|----------------------------|---------------------|
---------------------------|----------------------------|---------------------|
---------------------------|----------------------------|---------------------|
---------------------------|----------------------------|---------------------|


    E  E  S S E  E  E  S S E     E  E  S S E    H         
-------4--2---------4--2------|-----4--2-----------------|
--2g4-------2-2--4-------2-2--|--4-------2-2--2g4--------|
------------------------------|--------------------------|
------------------------------|--------------------------|
------------------------------|--------------------------|
------------------------------|--------------------------|


  E  E  S S E  E  S  S S S E     E     E  S S E  Q.     S S  
--4--7--4---------7h-9-6-2----|-----9g11--9-4-2-------------|
----------4-2--4-----------2--|-------------------------1-4-|
------------------------------|-----------------------------|
------------------------------|-----------------------------|
------------------------------|-----------------------------|
------------------------------|-----------------------------|


    E     E  S S E  E  E  S S E     S  S E  S S E  Q.     S S  
--2g4--9g11--9-4-2--4--9--7-4-2--|--2h-4-9--7-4-2-------------|
---------------------------------|------------------------2-4-|
---------------------------------|----------------------------|
---------------------------------|----------------------------|
---------------------------------|----------------------------|
---------------------------------|----------------------------|


  E  E  S S E  E  E  S S E     E  E  S S E  E  E  Q          Q    H.            
-----4--1---------4--2------|-----4--2------------4----|--6g11----6------------|
--4-------4-2--4-------4-2--|--4-------4-2--4--4-------|-----------------------|
----------------------------|--------------------------|-----------------------|
----------------------------|--------------------------|-----------------------|
----------------------------|--------------------------|-----------------------|
----------------------------|--------------------------|-----------------------|


  E  S S E   S   S  S S Q.        E  S S E   E  S S Q.      
-----7-7-7--10s-12-10-5-5------|-----5-5-5--10--8----------|
-------------------------------|------------------8-8------|
-------------------------------|---------------------------|
-------------------------------|---------------------------|
-------------------------------|---------------------------|
-------------------------------|---------------------------|


  E    S S E  E  S S Q    E     Q.     S  S S S S S Q     
-----2g3-3-3--8--7-2-2----7--|--7------4s-2-2------------|
-----------------------------|----------------2-4-4-L----|
-----------------------------|---------------------------|
-----------------------------|---------------------------|
-----------------------------|---------------------------|
-----------------------------|---------------------------|


  E  E  E   S   S  S S Q.        E  S S E   E  S S Q.      
--0--7--7--10h-12-10-5-5------|-----5-5-5--10--8-3-3------|
------------------------------|---------------------------|
------------------------------|---------------------------|
------------------------------|---------------------------|
------------------------------|---------------------------|
------------------------------|---------------------------|


  E  S S E  E  S S Q    E     E   S  S  E    E   E  Q.      
-----3-3-3--8--7-2-2----7--|--7--10-10-10s--15--14--9------|
---------------------------|-------------------------------|
---------------------------|-------------------------------|
---------------------------|-------------------------------|
---------------------------|-------------------------------|
---------------------------|-------------------------------|


  Q    S S S S Q    S S E     E.  S S S E  E.  E.  E   
--2----0-2-3-3-5----3-2-0--|--2---2-0-2-0----------0--|
---------------------------|---------------3---3------|
---------------------------|--------------------------|
---------------------------|--------------------------|
---------------------------|--------------------------|
---------------------------|--------------------------|


                                                   ^     
  Q    S S E  S  S  Q    S  S     Q    S S E  Q    Q     
--2----2-3-5--9-10--L----9-10-|--10----7-5-4--7----5----|
------------------------------|---------------7----5----|
------------------------------|-------------------------|
------------------------------|-------------------------|
------------------------------|-------------------------|
------------------------------|-------------------------|


  Q    S S S  S Q    S S E     Q    E  E  Q    S S E   
--5----2-3-3h-5-5----2-0----|--0----0--5--2----2-3-5--|
-------------------------3--|-------------------------|
----------------------------|-------------------------|
----------------------------|-------------------------|
----------------------------|-------------------------|
----------------------------|-------------------------|


    Q    S  S E  E.  E.  S S    Q    S S E  S  E  S S S S S  
--8g9----9-10-9--7---5---5-4-|--4----4-5-4--0h-2--2-5-4-2-0-|
-----------------------------|------------------------------|
-----------------------------|------------------------------|
-----------------------------|------------------------------|
-----------------------------|------------------------------|
-----------------------------|------------------------------|


  E.  S E  E  E  Q     E      E.  S S S E  Q    S E.   
--2---4-5--7--8--9----11--|--12---4-0-2-4--4----2-0---|
--------------------------|---------------------------|
--------------------------|---------------------------|
--------------------------|---------------------------|
--------------------------|---------------------------|
--------------------------|---------------------------|


  E.  S S E  S Q.      E     E  E  E  E  E  E  E  E   
--0---0-0-2--4-4------11--|--7--4--2--3--4-----0--2--|
--------------------------|-----------------2--------|
--------------------------|--------------------------|
--------------------------|--------------------------|
--------------------------|--------------------------|
--------------------------|--------------------------|


  E  E  E  E    E  E  E  E     E  E  E  E  E  E  E  E   
--7--4--2--0--7g9--4--7--2--|--7--4--2--0--4--0--0-----|
----------------------------|-----------------------4--|
----------------------------|--------------------------|
----------------------------|--------------------------|
----------------------------|--------------------------|
----------------------------|--------------------------|


  Q    E  Q    E  E  E     Q     H.              W                 
-------0--0----0--2--4--|--7----12------------|-------------------|
------------------------|---------------------|-------------------|
------------------------|---------------------|-------------------|
------------------------|---------------------|-------------------|
------------------------|---------------------|-------------------|
------------------------|---------------------|-------------------|


  Q     H.              W                    S   E.   H        Q     
--7----12------------|-------------------|-----------12-------------|
---------------------|-------------------|--10s-12------------------|
---------------------|-------------------|--------------------------|
---------------------|-------------------|--------------------------|
---------------------|-------------------|--------------------------|
---------------------|-------------------|--------------------------|


                                                        ^            
  W                    Q     Q    H           H         Q     Q      
-------------------|--------12-------------|-----------------12----||
-------------------|--12-------------------|-----------12----------||
-------------------|-----------------------|-----------11----------||
-------------------|-----------------------|-----------11----------||
-------------------|-----------------------|-----------------------||
-------------------|-----------------------|-----------------------||


Guitar2

     ^                                        ^                  
     H        H           W                   H        H         
E||--------------------|-------------------|--------------------|
B||--0-----------------|-------------------|--0-----------------|
G||--0-----------------|-------------------|--0-----------------|
D||--0-----------------|-------------------|--0-----------------|
A||--7-----------------|-------------------|--7-----------------|
E||--0-----------------|-------------------|--0-----------------|


                       ^                        ^         ^          
  H        H           E  E  E  E  Q    Q       Q.     E  Q    Q     
--------------------|--0-----------0---------|----------------------|
--------------------|--0--------0------------|--1---------0---------|
--------------------|--0-----0---------------|--2---------0---------|
--------------------|-----2------------------|--0-------------------|
-----------2--------|--3---------------------|---------3------------|
--------------------|------------------------|----------------------|


                      ^                                      
  W                   H        H           W                 
-------------------|--------------------|-------------------|
-------------------|--0-----------------|-------------------|
-------------------|--0-----------------|-------------------|
-------------------|--0-----------------|-------------------|
-------------------|--7-----------------|-------------------|
-------------------|--0-----------------|-------------------|


  ^                                         ^                  
  H        H           Q    H.              H.           Q     
--------------------|--------------------|--0-----------------|
--0-----------------|--------------------|--0-----------------|
--2-----------------|--------------------|--0-----------------|
--3-----------------|--------------------|--------------------|
--3-----------------|--2-----------------|--3-----------------|
--1-----------------|--------------------|--------------------|


  ^                             ^                             
  Q    H.              H        H           W                 
--------------------|-----------0--------|-------------------|
--------------------|-----------0--------|-------------------|
--5-----------------|-----------1--------|-------------------|
--5-----------------|-----------2--------|-------------------|
--0-----------------|--2--------2--------|-------------------|
--------------------|-----------0--------|-------------------|


                      ^                    ^                  
  W                   H        H           H        H         
-------------------|--------------------|--0-----------------|
-------------------|--------------------|--1-----------------|
-------------------|--5-----------------|--------------------|
-------------------|--5-----------------|--------------------|
--0----------------|--0-----------------|--0-----------------|
-------------------|--------------------|--------------------|


  ^                              ^            ^                  
  H        H           Q    Q    Q.     E     H        H         
--2-----------------|----------------------|--------------------|
--1-----------------|------------1---------|--1-----------------|
--------------------|------------2------0--|--0-----------------|
--------------------|-------2--------------|--------------------|
--0-----------------|--0-------------------|--0-----------------|
--------------------|----------------------|--------------------|


                         ^                                          
  Q    Q    Q    Q       Q    H.              E  E  E  H        E   
----------------------|--------------------|-----------------------|
-----------------0----|--1----3------------|-----------0-----------|
------------2---------|--2----2------------|--------0-----------0--|
-------2--------------|-------4------------|-----2-----------------|
--0-------------------|--0-----------------|--3--------------------|
----------------------|--------------------|-----------------------|


            ^                                               ^          
  Q    Q    Q    Q       E  E  E  E  H           E  E  Q    Q    Q     
----------------------|--1-----1--------------|--------0----0---------|
------------1---------|-----1-----1-----------|-----1-------0---------|
-------0----0---------|-----------------------|-----------------------|
----------------------|--0--------------------|--2--------------------|
--0-------------------|-----------------------|-----------------------|
----------------------|-----------------------|-----------------------|


             ^                                                     
  E  E  Q    Q    Q       Q    Q    Q    Q       W                 
-----------------------|----------------------|-------------------|
--------3----3---------|----------------------|-------------------|
-----3-------3---------|--0----3----3---------|-------------------|
--0--------------------|----------------------|-------------------|
-----------------------|----------------------|-------------------|
-----------------------|--3-------------------|-------------------|


       ^                                       ^                   
  Q    H.              E  E  E  E  H           Q.     Q.     Q     
-------0------------|--0--------------------|---------------------|
-------0------------|--1--------1-----------|--0------------------|
-------1------------|--------0--------------|--0------0-----------|
--------------------|-----2-----------------|---------------------|
--------------------|--0--------------------|---------------------|
-------0------------|-----------------------|--0------------------|


  W                   W                   W                 
-------------------|-------------------|-------------------|
-------------------|-------------------|-------------------|
-------------------|-------------------|-------------------|
--3----------------|-------------------|--0----------------|
-------------------|--0----------------|-------------------|
-------------------|-------------------|-------------------|


                       ^                                      
  H.           Q       H        H           W                 
--------------------|--0-----------------|-------------------|
--0-----------------|--1-----------------|-------------------|
--0-----------------|--------------------|-------------------|
--------------------|--------------------|-------------------|
--------------------|--0-----------------|-------------------|
--0-----------------|--------------------|-------------------|


                       ^                                            
  H        H           H        E  S E  S E     Q.     E  H         
--------------------|--2--------0-------0-0--|--0------------------|
--------------------|--3--------1----1-------|---------------------|
-----------2--------|--2-----------2------0--|---------------------|
--------------------|--0---------------------|---------2--0--------|
--0-----------------|-----------3------------|---------------------|
--------------------|------------------------|---------------------|


  S S S E.  E  E  S E  S E     S S S E.  E  E  Q.      
--------0-----------2-------|--------2----------------|
------1-------------3-------|--------0------2---------|
----3-------3-----2----2----|------1-----1--0---------|
-------------------------4--|----0-------------2------|
--3------------2------------|---------------0---------|
----------------------------|--0----------------------|


  E  S E  E  S E  S E  E.     S S S E  S E  S S S E  S E   
-------0------------0------|--------2---------------------|
--0----0------------2------|------3----3----------2--3----|
-----0----0-------0----0---|----2--------2------2------2--|
-------------2-------------|------------------4-----------|
---------------0-----------|----------------2-------------|
--0------------------------|--2---------------------------|


  S S S E  S E  S S S E  S E     E  S E  E.  S S Q    E   
----------------------1-------|--------------------------|
--------3-----------2----2----|-------2----------2-------|
------4----4------2--------2--|-----2----2-----2------2--|
----4--------4--3-------------|--------------1-----------|
------------------------------|--------------------------|
--4---------------------------|--0-----------------------|


  ^         ^                                         
  Q    Q    Q.     E     S  E.  S S E  S S S E  S E   
------------4---------|---------0-2------------------|
--2---------4------4--|--4h-5-------0--------4----4--|
--2---------5---------|--------------------2----2----|
--0---------4---------|------------------4--------4--|
------------6---------|--4-------------3-------------|
------------4---------|------------------------------|


                ^            ^         ^     ^       ^                 
  S S S E  S E  Q    Q       Q    Q    E  E  Q       W                 
----------------0---------|-------0---------------|--0----------------|
--------0----3--2---------|--4----0----2--1--2----|--0----------------|
------1----1----1---------|--4----1----2-----2----|--1----------------|
----2-----------2---------|--4---------2----------|--2----------------|
--2-------------0---------|--2----2----0-----2----|--2----------------|
--------------------------|-----------------------|--0----------------|


  ^        ^           ^        ^           ^         ^         
  H        H           H        H           Q    Q    H         
--------------------|--------------------|---------------------|
-----------2--------|-----------4--------|--4------------------|
--4--------3--------|--4--------4--------|--4---------3--------|
--6--------4--------|--4--------4--------|--6----6----4--------|
--4-----------------|--2-----------------|--4------------------|
--------------------|-----------4--------|------------2--------|


  ^        ^           ^        ^           ^        ^         
  H        H           H        H           H        H         
--------------------|--------------------|--------------------|
--4--------4--------|--0--------2--------|--2--------4--------|
--3--------5--------|--1--------3--------|--2--------4--------|
--4--------4--------|--2--------4--------|--4--------6--------|
--2-----------------|--2--------4--------|--2-----------------|
-----------4--------|--0-----------------|-----------4--------|


  ^                    ^                                     
  H        H           W                   W                 
--------------------|-------------------|-------------------|
--------------------|-------------------|-------------------|
--4--------3--------|--3----------------|-------------------|
--6--------2--------|--4----------------|-------------------|
--4-----------------|-------------------|-------------------|
-----------4--------|--2----------------|-------------------|


  ^                    ^                             ^         
  H        H           H        H           H        H         
--3-----------------|--1-----------------|--------------------|
--3--------3--------|--3--------1--------|--1--------0--------|
--4-----------------|--2-----------------|--0--------2--------|
--5--------4--------|--3--------2--------|-----------1--------|
--------------------|--------------------|--0--------2--------|
--------------------|--------------------|--------------------|


  ^                                                            
  E  S S Q.     S T  S S S S  T    S S S E  S E  E  S E  S E   
--4-----------------------------|-----------0---------2-------|
--4--4-4-4----------------------|--------0-------3-------3----|
--4--------------------4--------|------0------0-----2------2--|
--6-------------4-4h-6---6-4s-2-|----2------------------------|
--------------------------------|--3-------------2------------|
--------------------------------|-----------------------------|


  E  E.  S E  E  S E  S E     E  S E  S S S E  S E  S S S  
-------------------0-------|------------------------------|
---------3---------1-------|-------4--1---1------4--------|
-----2-----2-----0----0----|------------0------4----4---4-|
---------------------------|--------------------------4---|
--1-----------0---------0--|-----3------------------------|
---------------------------|--4-------------4-------------|


  E  S E  E  S S S S E  S E     S S E  E.  S S S S E  S E   
---------------------0-------|---------------2-----0-------|
--0----3---------------------|------3------------1----1----|
-----0----0--0---0-3----3-0--|----2--------2---2-----------|
--2--------------------------|--0------------0-------------|
---------------4-------------|--------------------------0--|
--0--------------------------|-----------------------------|


                                                            ^        ^         
  S S E.  S E  E  E.  S S S    S S S Q    S S S S E  E.     H        H         
----------------------------|---------------------2------|-----------0--------|
---------------0------------|--------1------------3------|--5--------2--------|
------0-----0-----0---0---0-|------3------2-----2----2---|--4--------0--------|
----0-------------------2---|----2------------4----------|--6--------2--------|
----------2-----------------|--3------------2------------|--4--------0--------|
--3-------------------------|----------------------------|--4-----------------|


  E  S E  E.  E  S E  E  S    S S S E  S E  S S S E  S E   
-------0-----------0-------|--------2---------------------|
--0----0-----------2-------|------3----3----------2--3----|
-----0----0------0----0--0-|----2--------2------2------2--|
---------------------------|------------------4-----------|
--------------0------------|----------------2-------------|
--0------------------------|--2---------------------------|


  S S S E  S E  S S S E  S E     E  S E  E.  S S E.  S E   
----------------------1-------|---------------------------|
--------3-----------2----2----|-------2----------2---2----|
------4----4------2--------2--|-----2----2-----2-------2--|
----4--------4--3-------------|--------------1------------|
------------------------------|---------------------------|
--4---------------------------|--0------------------------|


  ^        ^                                                     ^         
  H        Q.     E     Q.     E  S S S E  S E     S S S E  S E  H         
-----------4---------|--------------------------|----------------0--------|
--2--------4------4--|--5------0--------4----4--|--------0----3--2--------|
--2--------5---------|----------------2----2----|------1----1----1--------|
--0--------4---------|--------------4--------4--|----2-----------2--------|
-----------6---------|--4---------3-------------|--2-------------0--------|
-----------4---------|--------------------------|-------------------------|


  ^    ^         ^       ^         ^                           ^     
  Q    Q    Q    Q       Q    Q    Q    Q       Q    Q    Q    Q     
----------------------|----------------------|----------------------|
-------5----2----1----|--0----2----2----4----|--5----2---------1----|
--4----6----2----2----|--1----2----2----2----|--4----2----1----2----|
--4----6----2---------|--2---------2----4----|--6----4---------1----|
--2----4----4----2----|-------0----4----2----|--4---------0----2----|
----------------------|----------------------|----------------------|


  ^                   ^                    ^                   
  W                   H        H           Q    Q    H         
--0----------------|--------------------|-------0-------------|
--0----------------|--1-----------------|---------------------|
--1----------------|--0-----------------|--4------------------|
--2----------------|--2-----------------|--4------------------|
--2----------------|--0-----------------|---------------------|
-------------------|--------------------|--4------------------|


  ^                    ^                     ^                  
  H.           Q       Q    H        Q       H.           Q     
--0-----------------|-------0-------------|--0-----------------|
--0-----------------|--0------------------|--0-----------------|
--0------------0----|--0------------------|--2-----------------|
--------------------|---------------------|--------------------|
--------------------|--3------------------|--------------------|
--3-----------------|---------------------|--2-----------------|


  ^                     ^                                        
  Q    H        Q       H        H           Q    H.             
-------0-------------|--0-----------------|--------------------||
--0------------------|--1-----------------|--------------------||
--0------------------|--2-----------------|--------------------||
---------------------|--0-----------------|--------------------||
--3------------------|--------------------|--------------------||
---------------------|--------------------|-------0------------||
Login or Register to remove this ad.