Ads

Joshua's Theme (Vagrant Story) Guitar Tab

Submitted: Feb 06, 2012 by Lemoncobbler

5
Average: 5 (1 vote)
Download | Listen
Game: Vagrant Story
Composer(s): Hitoshi Sakimoto
Style: Arrangement, Fingerstyle

AutoScroll: Slow | Medium | Fast
Joshua's theme (Capo 3)
Vagrant Story
Hitoshi Sakimoto
Arranged by lemoncobbler


     Q    Q    Q    Q       Q    Q    Q    Q       Q    Q    Q    Q     
E||----------------------|----------------------|----------------------|
B||--2---------0----2----|----------------------|------------2---------|
G||------------2---------|--2---------2---------|--0---------2----2----|
D||-------2---------2----|-------2---------2----|-------2---------2----|
A||--0-------------------|----------------------|--0-------------------|
E||----------------------|----------------------|----------------------|


  Q    Q    Q    Q       Q    Q    Q    Q       Q    Q    Q    Q     
--0-------------------|----------------------|----------------------|
--0---------3----2----|------------3----2----|-----------------3----|
------------2---------|--2---------2---------|--2---------2---------|
-------2---------2----|-------2---------2----|-------2---------2----|
--0-------------------|--0-------------------|--0-------------------|
----------------------|----------------------|----------------------|


  Q.     Q.     Q.        Q    H           Q    Q    Q    Q     
-----------------------|----------------|------------0---------|
----------------0------|--L----L--------|-----------------0----|
-----------------------|----------------|--2-------------------|
--0------2-------------|----------------|-------2--------------|
-----------------------|----------------|--4--------------L----|
--0--------------------|----------------|----------------------|


  Q    Q    Q    Q       Q    Q    Q    Q       Q    Q    Q    Q     
------------0---------|------------0---------|------------0---------|
-----------------0----|-----------------0----|-----------------0----|
----------------------|----------------------|----------------------|
-------2--------------|-------2--------------|--2----2----0---------|
----------------------|------------4----0----|-----------------4----|
--0--------------L----|----------------------|----------------------|


  Q    Q    Q    Q       Q    Q    Q    Q       Q    Q    Q    Q     
------------0---------|------------0---------|------------0---------|
-----------------0----|-----------------0----|-----------------0----|
----------------------|--2---------0---------|----------------------|
-------2--------------|-------2---------3----|--2----2--------------|
--0-------------------|--0-------------------|--0-------------------|
----------------------|----------------------|--0-------------------|


                         v                 v                               
  Q    Q    Q       Q    Q    Q       Q    S S E  E  E     Q    Q    Q     
--0----2----3----|--3----5----2----|--2----2-3-2--0-----|--0--------------|
-----------------|-------0---------|-------0---L-----3--|-----------------|
-----------------|-------0---------|-------0---L--------|-----------------|
-------2---------|-------2---------|-------2---L--------|-------2---------|
--3--------------|--3--------------|--3-----------------|--3---------2----|
-----------------|-----------------|--------------------|-----------------|


                         v                                              
  Q    Q    Q       Q    Q    Q       Q    Q    Q       Q    Q    Q     
--0----2----3----|--3----5----2----|--2---------2----|--0--------------|
-----------------|-------0---------|-------3---------|-----------------|
-----------------|-------0---------|------------0----|-----------------|
-------2---------|-------2---------|-------0---------|------------4----|
--0--------------|--0--------------|-----------------|-------4---------|
-----------------|-----------------|--3--------------|--2--------------|


  Q    Q    Q       Q    Q    Q         Q    Q    Q       Q    Q    Q     
--2--------------|--0---------5----|--3g2---------2----|--0--------------|
-----------------|-----------------|---------3---------|-----------------|
------------0----|-----------------|--------------0----|-----------------|
-------0---------|------------4----|---------0---------|------------4----|
--0--------------|-------4---------|-------------------|-------4---------|
-----------------|--2--------------|----3--------------|--2--------------|


  Q    Q    Q       Q     Q    Q       Q    S  S E   Q       Q    Q    Q     
--2--------------|--0----------9----|--9----9-10-9--------|--7--------------|
-----------------|-------10---------|---------------10----|-----------------|
------------0----|------------------|----------------9----|-------0----5----|
-------0---------|------------------|---------------------|-----------------|
-----------------|-------------9----|-------9-------------|-----------------|
--3--------------|--2-----9---------|---------------------|--3--------------|


  Q    Q    Q       Q    Q    Q       Q    Q    Q       Q    Q    Q     
--2--------------|--0---------5----|--2---------2----|--0--------------|
-----------------|-----------------|-------3---------|-----------------|
------------0----|-----------------|------------0----|-----------------|
-------0---------|------------4----|-------0---------|------------4----|
-----------------|-------4---------|-----------------|-------4---------|
--3--------------|--2--------------|--3--------------|--2--------------|


  Q    Q    Q       Q     Q    Q       Q    S  S E   Q       Q    Q    Q     
--2--------------|--0----------9----|--9----9-10-9--------|--7--------------|
-----------------|-------10---------|---------------10----|-----------------|
------------0----|------------------|----------------9----|-------0----5----|
-------0---------|------------------|---------------------|-----------------|
-----------------|-------------9----|-------9-------------|-----------------|
--3--------------|--2-----9---------|---------------------|--3--------------|


  Q    E  E  E  E     Q    Q    Q       Q      
-------------------|-----------------|-------||
-------1--0--------|-----------------|-------||
-------------2--0--|--2---------3----|--2----||
-------2-----------|-------3---------|--0----||
--0----------------|--1--------------|--1----||
-------------------|-----------------|--1----||




Duration Legend
---------------
W - whole
H - half
Q - quarter
E - 8th
S - 16th
T - 32nd
X - 64th
. - note dotted
|-n-|  - n-tuplets


Tablature Legend
----------------
L - tied note
x - dead note
g - grace note
(n) - ghost note
> - accentuded note
NH - natural harmonic
AH - artificial harmonic
TH - tapped harmonic
SH - semi harmonic
PH - pitch harmonic
h - hammer on
p - pull off
b - bend
br - bendRelease
pb - preBend
pbr - preBendRelease
brb - bendReleaseBend
\n/ - tremolo bar dip
\n - tremolo bar dive
-/n - tremolo bar Release up
/n\ - tremolo bar inverted dip
/n - tremolo bar return
-\n - tremolo bar Release down
S - shift slide
s - legato slide
/ -  slide into from below or out of upwards
\ -  slide into from above or out of downwards
~ - vibrato
W - wide vibrato
tr - trill
TP - tremolo picking
T - tapping
S - slap
P - pop
< - fade in
^ - brush up
v - brush down
Login or Register to remove this ad.