Login or Register to remove this ad.

Aufsteigende Flügel (Unlimited Saga) Guitar Tab

Submitted: May 19, 2017 by K0HIJIN (Last updated: May 19, 2017)

5
Average: 5 (2 votes)
Download | Listen
Game: Unlimited Saga
Composer(s): Masashi Hamauzu
Style: Arrangement, Fingerstyle

This song is also called Soaring Wings

AutoScroll: Slow | Medium | Fast
Game:           Unlimited SaGa (Vielen Danke)
Name of song:   Soaring Wings (Aufsteigende Flugel)
Composer:       Masashi Hamauzu
Tabber:         K0HIJIN
Date:           May 18th, 2017

[Standard Tuning]




   E E E Q.      E E E Q.      E E E Q.      E E E E E E
||-------------|-------------|-------0-----|-------------|
||-------0-----|-------2-----|-------------|-----3-----2-|
||-----2-------|-----0-------|-----2-------|-------------|
||---0---------|---2---------|-------------|---4-----4---|
||-------------|-0-----------|---4---------|-2-----0-----|
||-3-----------|-------------|-2-----------|-------------|
   

   E E E Q.      E E E Q.      E E E Q.      E E E Q.
||-------------|-------------|-------------|-------2-----|
||-------0-----|-------2-----|-------2-----|-----2-4-----|
||-----2-------|-----0-------|-----2-------|-------4-----|
||---0---------|---2---------|-------------|---4---------|
||-------------|-0-----------|---4---------|-2-----2-----|
||-3-----------|-------------|-2-----------|-------------|


   Q.   Q.       Q.    Q.      Q.    Q.      Q   E Q.  
||-------------|-------------|-------------|-2---0-2-----|
||-------------|-0-----------|-------------|-2-----------|
||-4----2------|-------2-----|-4-----0-----|-------------|
||-4----2------|-0-----0-----|-------------|-0-----------|
||-2-----------|-------------|-------0-----|-------------|
||------2------|-3-----2-----|-0-----------|-------------|


   Q   E E E E   Q.    Q.      Q.    Q.      Q.    Q.
||-------------|-------------|-------------|-------------|
||-----------0-|-2-----0-----|-------------|-------------|
||-------0-2---|-2-----------|-0-----------|-1-----3-----|
||-----4-------|-------------|-0-----2-----|-2-----2-----|
||-2-----------|-2-----------|-------------|-------------|
||-0-----------|-------------|-0-----------|-2-----2-----|



   E Q   E Q     E Q   E Q     E Q   E Q     E E E E E E
||---------0---|-------------|-------------|-------2-----| 
||-------------|---0---------|---------2---|-----2---2---|
||---4-----2---|---------2---|---4-----0---|---2-------2-|
||---4-----2---|---0-----0---|---0---------|-0-----------|
||-2-----------|-------------|-------0-----|-------------|
||-------2-----|-3-----2-----|-0-----------|-------------|


   E E E E E E   E Q   Q   E   E E E Q   E   Q.    E E E
||-------------|-------------|-------------|-------------|
||-----------0-|---2---0-----|-------------|-7-----------|
||-------0-2---|-------------|-------4---7-|-------------|
||-----4-------|---4---------|---4-6-------|-------6-----|
||---2---------|-2---------2-|-------------|---------9-7-|
||-0-----------|-------------|-0-----------|-------------|


   E E E Q.      Q.    Q.      E E E E E E   E E E E E E
||-------------|-0-----------|-------------|-----0-------|
||-------0-----|-------2-----|-----0-----2-|-------------|
||-----0-------|-2-----------|-------------|-----------2-|
||---0---------|-------2-----|---2-----2---|---0-----4---|
||-0-----------|-------------|-------0-----|-------2-----|
||-------------|-------2-----|-3-----------|-2-----------|


   E E E E E E   E E E Q.      Q.    Q.      Q.    Q.  
||-----------0-|-----0-2-----|-------------|-------3-----|
||-----3-------|-------------|-------3-----|-1-----3-----|
||---------0---|---2---------|-3-----2-----|-1-----3-----|
||---0---------|-0-----------|-5-----3-----|-------1-----|
||-------0-----|-------------|-3-----------|-1-----------|
||-0-----------|-------------|-------------|-------------|


   E E Q   E E   E E E Q   E   E E E Q.      E Q   E Q
||-------------|-------------|-------------|---1-----3---|
||-3-----------|-0---0-2-----|-3---0-2-----|---------3---|
||-----0-------|-------2-----|-------0-----|---2-----3---|
||-----------0-|---2-------2-|---2---2-----|-0-----5-----|
||---2-----2---|-0-----------|-0-----0-----|-------------|
||-0-----------|-------------|-------------|-------------|


   E Q   E Q     E Q   E E E   E Q   E E E   E Q   E E E
||---------0---|-------------|-------------|---1-----3---|
||---3-----1---|-------1-----|-3-------3-2-|---3-----3---|
||---3-----2---|---2---------|-3-----0-----|---2-----3---|
||-------3-----|-------3-2-3-|---0---------|-0---------0-|
||-3-----------|-1-----0-----|-------0-----|-------------|
||-------------|-------------|-3-----------|-------3-----|


   E Q   E E     Q.   Q.       Q   E Q.      Q.    Q.
||---3-----0---|-------------|-------------|-------------|
||---3-----1---|-------------|-1-----------|-------1-----|
||---3-----2---|------2------|-----0-------|-3-----0-----|
||-------3-----|-3-----------|-------3-----|-3-----------|
||-3-----------|-2-----------|-1-----0-----|-------0-----|
||-------------|-------------|-------------|-3-----------|

   Q.    Q.      Q     SE E S  E SE E SE E   E SE E E E S
||-------2-----|-------------|-----------2-|----0--------|
||-------------|-2-----23-2--|------0--0---|------3-2----|
||-2-----------|-2----------2|----2--------|-2--------2--|
||-------------|-2-----------|-4-4----4----|---2--------2|
||-2-----------|-------------|-2-----------|-------------|
||-------------|-2-----------|-------------|-2-----------|

   Q.    Q.      Q.    Q.      Q.   E E E    E. E. E E E
||-------------|-------------|-------------|-------------|
||-0-----------|-------------|-3-----------|-------------|
||-0-----------|-2-----------|-0--------4--|-3-----3-4-6-|
||-------0-----|-2-----0-----|------4-5----|-4-----------|
||-------------|-------------|-------------|-4-----1-2-4-|
||-3-----------|-2-----------|-0-----------|----4--------|

   E E E Q.      E E E Q.      E E E Q.      E E E E E E
||-------------|-------------|-------0-----|-------------|
||-------0-----|-------2-----|-------------|-----3-----2-|
||-----2-------|-----0-------|-----2-------|-------------|
||---0---------|---2---------|-------------|---4-----4---|
||-------------|-0-----------|---4---------|-2-----0-----|
||-3-----------|-------------|-2-----------|-------------|
   

   E E E Q.      E E E Q.      E E E Q.      E E E Q.
||-------------|-------------|-------------|-------2-----|
||-------0-----|-------2-----|-------2-----|-----2-4-----|
||-----2-------|-----0-------|-----2-------|-------4-----|
||---0---------|---2---------|-------------|---4---4-----|
||-------------|-0-----------|---4---------|-2-----2-----|
||-3-----------|-------------|-2-----------|-------------|

Login or Register to remove this ad.

2 comments on Aufsteigende Flügel

A note about this tab:

This tab is a duet arrangement.

The tab on the page itself is the accompaniment, while the download link points to sheet music of the solo part. The solo part should be playable on most mid-to-high range instruments but was originally intended for violin.

If anyone wants solo part in tab form, feel free to PM me!

This is really cool, I think

5

This is really cool, I think I would like the lead! I'll pm you