Your Best Friend (Undertale) Guitar Tab

Submitted: Apr 26, 2016 by UnderZelda

2.833335
Average: 2.8 (6 votes)
Download | Listen
Game: Undertale
Composer(s): Toby Fox
Style: Transcription

This song is also called Flowey's Theme

AutoScroll: Slow | Medium | Fast
(This is just the main melody that play in the middle of the theme)

E|--------------------------------------------------------------|
B|----------------------------------------------9--6------------|
G|-------5--5-6--8--5--6--6-8--------5--5-6--8----------8-------|
D|-----------------------------8--------------------------------|
A|--------------------------------6-----------------------------|
E|--------------------------------------------------------------|

E|--------------------------------------------------------------|
B|------------------------------------------------------9-------|
G|-------5--5-6--8--5--6--6-8--------5--5-6---------------------|
D|-----------------------------8-------------8--5--6------------|
A|--------------------------------6-----------------------------|
E|--------------------------------------------------------------|
Login or Register to remove this ad.