Login or Register to remove this ad.

The Wrong Number Song (Undertale) Guitar Tab

Submitted: Apr 05, 2017 by johnbie

5
Average: 5 (2 votes)
Download | No audio :(
Game: Undertale
Composer(s): Toby Fox
Style: Arrangement, Fingerstyle, Transcription

AutoScroll: Slow | Medium | Fast
The Wrong Number Song
Song by Toby Fox
Arranged by John Lee


     H        Q.     E     E  E  Q    E  E  E  E     E  E  E  E  Q    E  E     E  E  E  E  E  E  E  E   
E||---------------------|-------------------------|-------------------------|--------------------------|
B||---------------------|--2--2--2----0-----------|-------------------------|--2--2--2--2--0-----------|
G||---------------------|----------------2--------|-----2--2--2-------------|-----------------2--------|
D||------------------2--|----------------------2--|--4-------------------2--|--------------------2--2--|
A||---------------------|--0----------0-----------|--0-----------0----------|--0-----------0-----------|
E||------------------0--|--------0----------0-----|--------0----------0-----|--------0-----------0--0--|


  E  E  E  E  Q    E  E     E  E  Q    E  E  E  E     E  E  E  E  Q    E  E     E  E  E  E  E  E  E  E   
-------------------------|-------------------------|-------------------------|--------------------------|
-----0-------------------|--2--2--2----0-----------|-------------------------|--2--2--2--2--0-----------|
-----------2-------------|----------------2--------|-----2--2--2-------------|-----------------2--------|
--4-------------------2--|----------------------2--|--4-------------------2--|--------------------2--2--|
--0-----------0----------|--0----------0-----------|--0-----------0----------|--0-----------0-----------|
--------0----------0-----|--------0----------0-----|--------0----------0-----|--------0-----------0--0--|


  E  E  E  H        E  E    
--------------------------||
-----0--------------------||
-----------2--------------||
--4-----------------------||
--0-----------------------||
--------0-----------------||




Duration Legend
---------------
W - whole
H - half
Q - quarter
E - 8th
Login or Register to remove this ad.