Ads

Waterfall (Undertale) Guitar Tab

Submitted: Nov 14, 2022 by JordanVS (Last updated: Nov 14, 2022)

0
Download | Listen
Game: Undertale
Composer(s): Toby Fox
Style: Arrangement, Fingerstyle

AutoScroll: Slow | Medium | Fast
Waterfall
Undertale
Toby Fox
JordanVS

Tempo: 70 ~ 4/4 ~ 3/4

Download Link: https://www.mediafire.com/file/avugflb5xu5oswn/Waterfall_-_Undertale.zip...

     E  E  E  E  E  E  E  E     E  E  E  E  E  E  E  E     E  E  E  E  E  E  E  E   
E||--------2-----0-----------|--------2--3--5--3--2-----|--------2-----0-----------|
B||-----------3-----0-----0--|-----------------------3--|-----------3-----0-----0--|
G||-----4--------------0-----|-----4--------------------|-----4--------------0-----|
D||--2-----------------------|--2-----------------------|--2-----------------------|
A||--------------------------|--------------------------|--------------------------|
E||--------------------------|--------------------------|--------------------------|


  E  E  E  E  E  E  E  E     E  E  E  E  E  E  E  E     E  E  E  E  E  E  E  E   
--------2--3--5--3--2-----|--------2-----0-----------|--------2--3--5--3--2-----|
-----------------------3--|-----0-----3-----0-----0--|-----------------------3--|
-----4--------------------|--------------------0-----|-----4--------------------|
--2-----------------------|--2-----------------------|--2-----------------------|
--------------------------|--3-----------------------|--2-----------------------|
--------------------------|--------------------------|--------------------------|


                                                      *3/4
  E  E  E  E  E  E  E  E     E  E  E  E  E  E  E  E       E  E  E  E  E  E   
--------2-----0-----------|--------2--3--5--3--2-----||---------0--L--3--L--|
-----------3-----0-----0--|-----------------------3--||---0--L--------------|
-----4--------------0-----|-----4--------------------||*-----0-----0-----0--|
--2-----------------------|--2-----------------------||*--------------------|
--------------------------|--------------------------||---------------------|
--0-----------------------|--------------------------||---0-----------------|


  E  E  E  E  E  E     E  E  E  E  E  S  S     E  E  E  E   E  E     E  E  E  E  E  E   
--------2--3--5-----|----------------------|-------------------7--|--------------------|
--5--L-----------7--|--8-----L--7--L-------|---------7--8--10-----|--8--L--7--L--0--L--|
--------2--4--5-----|--------9--------9p-7-|-------------------8--|-----0-----0-----0--|
-----4-----------7--|-----9--------9-------|--10--L--7--9--10-----|--------------------|
--0-----------6-----|----------------------|------9---------------|--------------------|
--------------------|--0-------------------|---8------------7-----|--0-----------------|

                                        1.                     2.
  E  E  E  E  Q       E  E  E  E  E  E     E  E  E  E  E  E       E  E  E  E  E  E   
--0--L-------------|-----------------0--|---------------------||-----------2--3--2--|
--0--L--3--L--1----|--3-----0-----------|--0--L-----------1---||--0--L--------------|
--------2--L--0----|-----5-----2--L-----|--------0-----2-----*||--------0--2--4--2--|
-----4-----4-------|--4-----0-----0-----|-----2-----4--0-----*||-----2-----------0--|
--3----------------|--2-----------------|--3------------------||--3-----------------|
-------------------|--------------------|---------------------||--------------------|


                                                       ^         1. 2. 3.
    E  E  E  E  E  E     E  E  E  E  E  E     E  E  E  E  E  E     E  E  E  E  E  E   3x
|---5--L--5--L-----5--|--------------------|-----------5--L-----|--0--L-----2--3--2---||
|---5--L--5--L-----5--|--7--L--7--8--7--8--|--7--L-----5--L-----|--0--L--0------------||
|*-----4-----4--------|--5--L--7--9--7--9--|--5--L--5--5--L--5--|-----2-----2--4--2--*||
|*--------------5-----|-----7--------------|-----5-----5--5-----|--0-----------L--0--*||
|---------------------|--0-----------0--0--|--------------------|---------------------||
|---0-----------L--0--|--------------------|--8-----------L--8--|---------------------||

4.
  E  E  E  E  E  E     H.              Q    E   E  Q    Q    Q     
--0--L-----0--1--3--|--5------------|--------------0--------------|
--0--L--0-----------|---------------|-------1h--3-------3----1----|
-----2-----0--2--4--|--5------------|-------2---------------------|
--0-----------------|--3------------|-----------------------------|
--------------------|---------------|-----------------------------|
--------------------|---------------|--1----L---------------------|


                                                        ^                  
  E  E  E  E  E  E  E  E     E  E  E  E  E  E  E  E     W                  
-----0--2-----0-----------|--------2--3--5--3--2-----|--0----------------||
-----------3-----0-----0--|-----------------------3--|--0----------------||
--4-----------L-----0-----|-----4--------------------|--0----------------||
--------------------------|--2-----------------------|-------------------||
--------------------------|--------------------------|-------------------||
--0-----------------------|--L-----------------------|--0----------------||




Duration Legend
---------------
W - whole
H - half
Q - quarter
E - 8th
S - 16th
T - 32nd
X - 64th
. - note dotted
|-n-|  - n-tuplets


Tablature Legend
----------------
L - tied note
x - dead note
g - grace note
h - hammer on
p - pull off
b - bend
S - shift slide
s - legato slide
/ -  slide into from below or out of upwards
\ -  slide into from above or out of downwards
~ - vibrato
W - wide vibrato
tr - trill
< - fade in
^ - brush up
v - brush down
Login or Register to remove this ad.