Waterfall (Undertale) Guitar Tab

Submitted: Mar 26, 2016 by johnbie (Last updated: May 13, 2016)

4.8
Average: 4.8 (5 votes)
Download | Listen
Game: Undertale
Composer(s): Toby Fox
Style: Arrangement, Fingerstyle

AutoScroll: Slow | Medium | Fast
Waterfall
Song by Toby fox
Arranged by John Lee
Capo 2



     E  E  E  E  E  E  E  E     E  E  E  E  E  E  E  E       E  E  E  E  E  E  E  E   
E||--------0-----------------|--------0--1--3--1--0------||--------0-----------------|
B||-----------1--3-----------|-----------------------1---||-----------1--3-----------|
G||-----2-----------2-----2--|-----2--------------------*||-----2-----------2-----2--|
D||--0-----------------3-----|--0-----------------------*||--0-----------------3-----|
A||--------------------------|---------------------------||--1-----------------------|
E||--------------------------|---------------------------||--------------------------|


  E  E  E  E  E  E  E  E     E  E  E  E  E  E  E  E     E  E  E  E  E  E  E  E   
--------0--1--3--1--0-----|--------0-----------------|--------0--1--3--1--0-----|
-----------------------1--|-----------1--3-----------|-----------------------1--|
-----2--------------------|-----2-----------2-----2--|-----2--------------------|
--0-----------------------|--0-----------------3-----|--0-----------------------|
--0-----------------------|--------------------------|--------------------------|
--------------------------|--0-----------------------|--------------------------|


    E  E  E  E  E  E     E  E  E  E  E  E     E  E  E  E  E  S S    E  E  E  E  E  E   
|---------------------|--------------------|---------------------|-----------------0--|
|---------3--1--3-----|--------------------|--------3--1--3------|--------------2-----|
|*-----2-----------2--|--0--2-----2--0-----|-----2---------------|--0--2-----2--0--2--|
|*--0-----0-----3-----|--0-----2--3-----2--|--3--------2-----0---|--------2-----------|
|---0-----------------|--------------------|-------------------3-|--1--------0--------|
|---------------------|--------3-----------|--1------------------|--------3-----------|

                                                               _____________________
                                                              | 1.                
  E  E  E  E  E  E     E  E  E  E  E  E     E  E  E  E  E  E     E  E  E  E  E  E     
--------------------|--------------------|--------------0-----|---------------------||
--------3--1--3-----|--------------------|--------1--3-----1--|--3------------------||
-----2-----------2--|--0--2-----2--0--2--|-----0--------------|-----2--0--2--------*||
--0-----2-----------|--0-----2-----------|--2-----------------|--------------2--3--*||
--------------0-----|--------3-----1-----|--3--1--0--------3--|--0-----------1--1---||
--------------------|--------------------|-----------3--------|-----------3---------||

 ____________________
| 2.
  E  E  E  E  E  E       E  E  E  E  E  E     E  E  E  E  E  E     E  E  E  E  E  E   
--------------------||---------------------|--------------------|--------------------|
--3-----------------||---------------------|--------------------|--------------------|
-----2--0-----------||*--0--2--0-----2--0--|-----2--------------|-----2-----0-----2--|
-----------2--3--2--||*--0-----0--3-----0--|--2-----2--3--2--3--|--2-----2-----3-----|
--------------------||---------------------|--1-----3-----------|--1-----------------|
--1-----------------||---------------------|--------------------|--------------------|

 ____________________  ____________________
| 1-3.                | 4.
  E  E  E  E  E  E   4x  E  E  E  E  E  E     H.              Q    E  E  Q     
---------------------||--------------------|---------------|------------------|
---------------------||--------------------|---------------|----------1--3----|
-----2--0-----------*||-----2--0-----------|--0------------|-------3----------|
--0--------2--3--2--*||--0--------0--1--3--|---------------|------------------|
--0------------------||--0-----------------|--1------------|------------------|
---------------------||--------------3-----|---------------|------------------|


  Q    Q    Q       H.             
-----------------|---------------||
--1--------------|---------------||
-------3----2----|--L------------||
-----------------|---------------||
-----------------|---------------||
-----------------|---------------||





Duration Legend
---------------
W - whole
H - half
Q - quarter
E - 8th


Tablature Legend
----------------
L - tied note
Login or Register to remove this ad.