Unnecessary Tension (Undertale) Guitar Tab

Submitted: Aug 30, 2016 by floflo79

3
Average: 3 (1 vote)
Download | Listen
Game: Undertale
Composer(s): Toby Fox
Style: 2 or more instruments, Transcription

AutoScroll: Slow | Medium | Fast
Unnecessary Tension
from Undertale
composed by Toby Fox
tabbed by floflo79
made 29/08/2016

E|-9-----------9-----------9-----------9-----------|-9-----------9-----------9-----------9-----------|
B|-------------------------------------------------|-------------------------------------------------|
G|----6--6--6-----6--6--6-----6--6--6-----6--6--6--|----6--6--6-----6--6--6-----6--6--6-----6--6--6--|
D|-------------------------------------------------|-------------------------------------------------|
A|-------------------------------------------------|-------------------------------------------------|
E|-------------------------------------------------|-------------------------------------------------|


E|-11----------11----------11----------11----------|-11----------11----------11----------11----------|
B|-------------------------------------------------|-------------------------------------------------|
G|----8--8--8-----8--8--8-----8--8--8-----8--8--8--|----8--8--8-----8--8--8-----8--8--8-----8--8--8--|
D|-------------------------------------------------|-------------------------------------------------|
A|-------------------------------------------------|-------------------------------------------------|
E|-------------------------------------------------|-------------------------------------------------|


E|-9-----------9-----------9-----------9-----------|-9-----------9-----------9-----------9-----------|
B|-------------------------------------------------|-------------------------------------------------|
G|----6--6--6-----6--6--6-----6--6--6-----6--6--6--|----6--6--6-----6--6--6-----6--6--6-----6--6--6--|
D|-------------------------------------------------|-------------------------------------------------|
A|-------------------------------------------------|-------------------------------------------------|
E|-------------------------------------------------|-------------------------------------------------|


E|-11----------11----------11----------11----------|-11----------11----------11----------11----------|
B|-------------------------------------------------|-------------------------------------------------|
G|----8--8--8-----8--8--8-----8--8--8-----8--8--8--|----8--8--8-----8--8--8-----8--8--8-----8--8--8--|
D|-------------------------------------------------|-------------------------------------------------|
A|-------------------------------------------------|-------------------------------------------------|
E|-------------------------------------------------|-------------------------------------------------|





Track 2: Track 2

E|-------------------------|-----------------------|-------------------------|---------------------|
B|-------------------------|-----------------------|-------------------------|---------------------|
G|-------------------------|-----------------------|-------------------------|---------------------|
D|---------------7----6----|-------------4---6-----|---------------9----8----|-----------8---------|
A|-4----5------------------|-4----5----------------|-6----7------------------|-6----7--------------|
E|-------------------------|-----------------------|-------------------------|---------------------|


E|-------------------------|-----------------------|-------------------------|---------------------|
B|-------------------------|-----------------------|-------------------------|---------------------|
G|-------------------------|-----------------------|-------------------------|---------------------|
D|---------------7----6----|-------------4---6-----|---------------9----8----|-----------8---------|
A|-4----5------------------|-4----5----------------|-6----7------------------|-6----7--------------|
E|-------------------------|-----------------------|-------------------------|---------------------|



Login or Register to remove this ad.