Undertale (Undertale) Guitar Tab

Submitted: Feb 01, 2016 by rebe

5
Average: 5 (1 vote)
Download | Listen
Game: Undertale
Composer(s): Toby Fox
Style: 2 or more instruments, Arrangement, Fingerstyle

AutoScroll: Slow | Medium | Fast
Song: "Undertale"
Game: Undertale
by Toby Fox
11-12-15


    Gtr I
    E E E E E.   E. E   +E  E E E E.   E. E   E E E E E.   E. E   +E  E E E E.   E. E
||----1---------------|---------------------|---1---------------|---------3-1-------1--||
||o-----4---3----3--4-|-(4)---4---3----3--4-|-----4---3----3--4-|-(4)---4--------4----o||
||--3-----3-----------|-----3---3-----------|-3-----3-----------|-----3----------------||
||----1---1----1----1-|-----1---1----1----1-|---1---1----1----1-|-----1---1----1----1--||
||o-------------------|---------------------|-------------------|---------------------o||
||--------------------|---------------------|-------------------|----------------------||
    E q   q    q    E    E  q   q    q    E   E q   q    q    E    E  q   q    q    E



    E E E E E. E.   E   +E  E E E E. E.   E   E E E E E. E.   E   +E  E E E E. E.   E
||--------------------|---------------------|-------------------|---------3-----------|
||o---6-4---3--3----4-|-(4)---4---3--3----4-|---6-4---3--3----4-|-(4)---4---6--4----6-|
||--3-----3-----------|-----3---3-----------|-3-----3-----------|-----3---------------|
||--------------------|---------------------|-------------------|---------------------|
||o-------------------|---------------------|-------------------|---------------------|
||--4---4---4-----4---|--4----4---4-----4---|-3---3---3-----3---|--3----3---3-----3---|
    q   q   q     q      q    q   q     q     q   q   q     q      q    q   q     q



  E E E E E. E.   E   +E  E E E E. E.   E   E E E E E. E.   E   +E  E E E E. E.   E
|-------------------|---------------------|---1---------------|---------3------------||
|---6-4---3--3----4-|-(4)---4---3--3----4-|-----4---3--3----4-|-(4)---4---6--4----6-o||
|-3-----3-----------|-----3---3-----------|-3-----3-----------|-----3----------------||
|-------------------|---------------------|-------------------|----------------------||
|-------------------|---------------------|-1---1---1-----1---|--3----3---3-----3---o||
|-4---4---4-----4---|--4----4---4-----4---|-------------------|----------------------||
  q   q   q     q      q    q   q     q     q   q   q     q      q    q   q     q



   E E E E  E. E.   E   +E  E E E E. E.   E    E E E E  E. E.   E   +E  E E E E. E.   E
|---------------------|---------------------|---------------------|---------3-----------|
|----6-4----3--3----4-|-(4)---4---3--3----4-|----6-4----3--3----4-|-(4)---4---6--4----6-|
|--3-----3------------|-----3---3-----------|--3-----3------------|-----3---------------|
|---------------------|---------------------|---------------------|---------------------|
|---------------------|---------------------|---------------------|---------------------|
|--4---4----4-----4---|--4----4---4-----4---|--3---3----3-----3---|--3----3---3-----3---|
|  q   q    q     q      q    q   q     q      q   q    q     q      q    q   q     q
|
| Gtr II
|  H        H            W                     H        H            W
|----------18---------|---------------------|----------18---------|---------------------|
|---------------------|-18------------------|-16------------------|---------------------|
|-15------------------|---------------------|---------------------|-15------------------|
|---------------------|---------------------|---------------------|---------------------|
|---------------------|---------------------|---------------------|---------------------|
|---------------------|---------------------|---------------------|---------------------|




   E E E E  E. E.   E   +E  E E E E. E.    E    E E E E  E. E.   E   +E  E E E E. E.   E
|---------------------|----------------------|----1----------------|---------3-----------*|
|----6-4----3--3----4-|-(4)---4---3--3-----4-|------4----3--3----4-|-(4)---4---6--4----6-*|
|--3-----3------------|-----3---3------------|--3-----3------------|-----3---------------*|
|---------------------|----------------------|---------------------|---------------------*|
|---------------------|----------------------|--1---1----1-----1---|--3----3---3-----3---*|
|--4---4----4-----4---|--4----4---4------4---|---------------------|---------------------*|
|  q   q    q     q      q    q   q      q      q   q    q     q      q    q   q     q
|
|  H        H            H.              Q      H        H            W
|---------------------|-18--------------20---|-18------------------|---------------------*|
|----------15---------|----------------------|----------18---------|-16------------------*|
|-15------------------|----------------------|---------------------|---------------------*|
|---------------------|----------------------|---------------------|---------------------*|
|---------------------|----------------------|---------------------|---------------------*|
|---------------------|----------------------|---------------------|---------------------*|
Login or Register to remove this ad.

2 comments on Undertale

Suggestion

5

You could use a capo on the first fret and use all the open strings instead of playing those painful a# and d#.

That's a good quality tab, anyway, I'll use this to play this OST.

Thank you!

Berga said
You could use a capo on the first fret and use all the open strings instead of playing those painful a# and d#.

That's a good quality tab, anyway, I'll use this to play this OST.