Undertale (Undertale) Guitar Tab

Submitted: Nov 11, 2015 by Jack the Cow

4.77778
Average: 4.8 (18 votes)
Download | Listen
Game: Undertale
Composer(s): Toby Fox
Style: Arrangement, Fingerstyle

AutoScroll: Slow | Medium | Fast
Game: Undertale
Song: Undertale
Composed by Toby Fox
Transcribed by Jack the Cow
28/10/2015


Capo 3

      E  E  E  E  E  S E.  E     E  E  E  E  E  S E.  E     E  E  E  E  E  S E.  E     E  E  E  E  E  S E.  E  
E||---------------------------|--------------------------|--------------------------|-----------0--------------|
B||------3--1-----0----0---1--|--------1-----0----0---1--|-----3--1-----0----0---1--|--------1-----3----1---3--|
G||*-----------0-----0--------|-----0-----0-----0--------|-----------0-----0--------|-----0-----------0--------|
D||*--------------------------|--------------------------|--------------------------|--------------------------|
A||---------------------------|--------------------------|--------------------------|--------------------------|
E||---1-----1-----1----1------|--1-----1-----1----1------|--0-----0-----0----0------|--0-----0-----0----0------|



  E  E  E  E  E  S E.  E     E  E  E  E  E  S E.  E     E  E  E  E  E  S E.  E     E  E  E  E  E  S E.  E    
--------------------------|--------------------------|--------------------------|-----------0---------------||
-----3--1-----0----0---1--|--------1-----0----0---1--|-----3--1-----0----0---1--|--------1-----3----1---3---||
-----------0-----0--------|-----0-----0-----0--------|-----------0-----0--------|-----0-----------0--------*||
--------------------------|--------------------------|--------------------------|--------------------------*||
--------------------------|--------------------------|--------------------------|--0-----0-----0----0-------||
--1-----1-----1----1------|--1-----1-----1----1------|--3-----3-----3----3------|---------------------------||



   E  E  E  E  E  S E.  E     E  E  E  E  E  S E.  E     E  E  E  E  E  S E.  E     E  E  E  E  E  S E.  E   
---------------3-----------|--------------------------|--------------3-----------|-----------0--------------|
------3--1----------0---1--|--3-----1-----0----0---1--|--1--3--1----------0---1--|-----0--1-----3----1---3--|
*--0--------0-----0--------|-----0-----0-----0--------|--0--------0-----0--------|--0--------------0--------|
*--------------------------|--------------------------|--------------------------|--------------------------|
---------------------------|--------------------------|--------------------------|--------------------------|
---1-----1-----1----1------|--1-----1-----1----1------|--0-----0-----0----0------|--0-----0-----0----0------|



  E  E  E  E  E  S E.  E     E  E  E  E  E  S E.  E     E  E  E  E  E  S E.  E     E  E  E  E  E  S E.  E     
--------------------------|--3--------------------5--|--3-----------------------|-----------0---------------||
-----3--1-----1----0---1--|--1-----1-----0----0------|-----3--1-----3----0---1--|--1-----0-----3----1---3---||
--0--------0-----0--------|-----0-----0-----0--------|--0--------0--0--0--------|--0--0-----------0--------*||
--------------------------|--------------------------|--------------------------|--------------------------*||
--------------------------|--------------------------|--------------------------|--0-----0-----0----0-------||
--1-----1-----1----1------|--1-----1-----1----1------|--3-----3-----3----3------|---------------------------||




  E  E  E  E  E  E  E  E       E  E  E  E  E  E  E  E     E  E  E  E  E  E  E  E     E  E  E  E  E  E  E  E   
-----8--7-----------------||---------------3-----------|--------------------------|--------------3-----------|
-----------8--5--3--1-----||---------1--3--1-----0--1--|--3-----1--3--1-----0--1--|--1-----0--1--1-----0--1--|
-----------------------0--||*--0-----0--0--0-----0--0--|--0-----0--0--0-----0--0--|--0-----0--0--0-----0--0--|
--------------------------||*--------------------------|--------------------------|--------------------------|
--0-----------------------||---------------------------|--------------------------|--------------------------|
--------------------------||---1--1--------1--1--------|--1--1--------1--1--------|--0--0--------0--0--------|



  E  E  E  E  E  E  E  E     E  E  E  E  E  E  E  E     E  E  E  E  E  E  E  E     E  E  E  E  E  E  E  E   
--------------------------|--------------------------|--3--------------------5--|--3-----------------------|
--------3-----3-----5--3--|--------1--3--1-----0-----|--1-----1--3--1-----0-----|--1-----1-----3-----3-----|
--0-----0-----0-----0--0--|--0-----0--0--0-----0-----|--0-----0--0--0-----0-----|--0-----0-----0-----0-----|
--------------------------|--------------------------|--------------------------|--------------------------|
--------------------------|--------------------------|--------------------------|--------------------------|
--0--0-----0-----0--------|--1--1--------1--1-----1--|--1--1--------1--1--------|--3--3-----3-----3-----3--|




  E  E  E  E  E  E  E  E     E  E  E  E  E  E  E  E     E  E  E  E  E  E  E  E     E  E  E  E  E  E  E  E   
--------------------------|--------------3-----------|-----------------0--------|--------------3-----------|
--1-----1-----1-----1-----|--------1--3--1-----0--1--|--3-----1--3--3-----3--1--|--1-----0--1--1-----0--1--|
--0-----0-----0-----0-----|--0-----0--0--0-----0--0--|--0-----0--0--------------|--0-----0--0--0-----0--0--|
--------------------------|--------------------------|--------------------------|--------------------------|
--0--0-----0-----0-----0--|--------------------------|--------------------------|--------------------------|
--------------------------|--1--1--------1--1--------|--1--1--------1-----------|--0--0--------0--0--------|



  E  E  E  E  E  E  E  E     E  E  E  E  E  E  E  E     E  E  E  E  E  E  E  E     E  E  E  E  E  E  E  E   
--------------------0--5--|--------------------------|--3--------------------5--|--3-----------------------|
--------3-----0--1--------|--------1--3--1-----0-----|--1-----1--3--1--0--1-----|--1-----1-----3-----3-----|
--0-----0-----------------|--0-----0--0--0-----0-----|--0-----0--0--------------|--0-----0-----0-----0-----|
--------------------------|--------------------------|--------------------------|--------------------------|
--------------------------|--------------------------|--------------------------|--------------------------|
--0--0-----0--0-----------|--1--1--------1--1-----1--|--1--1--------1-----------|--3--3-----3-----3-----3--|


                                                        
  E  E  E  E  E  E  E  E       E  E  E  E  E  E  E  E   
---------------------------||-----8--7-----------------|
--1-----1-----1-----1------||-----------8--5--3--1-----|
--0-----0-----0-----0-----*||-----------------------0--|
--------------------------*||--------------------------|
--0--0-----0-----0-----0---||--0-----------------------|
---------------------------||--------------------------|



  ^        ^            ^                      ^                        ^                 
  H        Q    Q       Q    Q    Q    Q       H        Q.      S  S    W                 
-----------3----0----|----------------------|-----------7------------|-------------------|
-----------1---------|--3----1----0----1----|--3---------------10p-8-|--8----------------|
--0--------0---------|--0-------------------|--0---------------------|--9----------------|
--3--------3---------|--0-------------------|--2---------------------|--7----------------|
--3------------------|----------------------|------------------------|--0----------------|
--1------------------|--3-------------------|--0---------------------|-------------------|


  ^                     ^                      ^                    ^                    
  H        Q    Q       Q    Q    Q    Q       H        H           Q    Q    Q    Q     
-----------3----0----|-----------------0----|--------------------|----------------------|
---------------------|--3----1----3---------|--0--------3--------|--3----1----0----1----|
--2------------------|--0-------------------|--0-----------------|--0-------------------|
--3------------------|--0-------------------|--2-----------------|--2-------------------|
--3------------------|----------------------|--------------------|--0-------------------|
--1------------------|--3-------------------|--0-----------------|----------------------|


  ^                     ^                      ^                        ^                 
  H        Q    Q       Q    Q    Q    Q       H        Q.      S  S    W                 
-----------3----0----|----------------------|-----------7------------|-------------------|
---------------------|--3----1----0----1----|--3---------------10p-8-|--8----------------|
--0------------------|--0-------------------|--0---------------------|--9----------------|
--3------------------|--0-------------------|--2---------------------|--7----------------|
--3------------------|----------------------|------------------------|--0----------------|
--1------------------|--3-------------------|--0---------------------|-------------------|


  ^                     ^                      ^                    ^                    
  H        Q    Q       Q    Q    Q    Q       H        H           Q    Q    Q    Q     
-----------3----0----|----------------------|--------------------|----------------------|
---------------------|--3----1----0----1----|--0--------3--------|--3----1----0----1----|
--2------------------|--0-------------------|--0-----------------|--0-------------------|
--3------------------|--0-------------------|--2-----------------|--2-------------------|
--3------------------|----------------------|--------------------|--0-------------------|
--1------------------|--3-------------------|--0-----------------|----------------------|



    Q    E  E  Q    E  E     Q    E  E  E  E  E  E     Q    E  E  Q    E  E     Q    E  E  E  E  E  E   
|--------------3----3--3--|-------------------------|--0----0--0--3----3--3--|--0----0--0--0--0--0--0--|
|---1----1--1--1----1--1--|--3----3--3--3--3--3--3--|--0----0--0--0----0--0--|--1----1--1--1--1--1--1--|
|*--0----0--0--0----0--0--|--0----0--0--0--0--0--0--|--0----0--0--0----0--0--|--0----0--0--0--0--0--0--|
|*--3----3--3--3----3--3--|--0----0--0--0--0--0--0--|--2----2--2--2----2--2--|--2----2--2--2--2--2--2--|
|---3----3--3--3----3--3--|--2----2--2--2--2--2--2--|--2----2--2--2----2--2--|--0----0--0--0--0--0--0--|
|---1----1--1--1----1--1--|--3----3--3--3--3--3--3--|--0----0--0--0----0--0--|-------------------------|



  Q    E  E  Q    E  E     Q    E  E  E  E  E  E     Q    E  E  Q    E  E     Q    E  E  E  E  E  E     
------------------------|--3----3--3--3--3--3--3--|--3----3--3-------------|--0----0--0--0--0--0--0---||
--1----1--1--1----1--1--|--3----3--3--3--3--3--3--|--0----0--0--3----3--3--|--1----1--1--1--1--1--1---||
--0----0--0--0----0--0--|--0----0--0--0--0--0--0--|--0----0--0--0----0--0--|--0----0--0--0--0--0--0--*||
--3----3--3--3----3--3--|--0----0--0--0--0--0--0--|--2----2--2--2----2--2--|--2----2--2--2--2--2--2--*||
--3----3--3--3----3--3--|--2----2--2--2--2--2--2--|--2----2--2--2----2--2--|--0----0--0--0--0--0--0---||
--1----1--1--1----1--1--|--3----3--3--3--3--3--3--|--0----0--0--0----0--0--|--------------------------||


                                                                               
  E  E  E  E  E  E  E  E   
--0--8--7-----------------|
--1--------8--5--3--1-----|
--0--------------------0--|
--2-----------------------|
--0-----------------------|
--------------------------|



    E  E  E  E  E  S E.  E     E  E  E  E  E  S E.  E     E  E  E  E  E  S E.  E     E  E  E  E  E  S E.  E   4x
|---------------------------|--------------------------|--------------------------|-----------0---------------||
|------3--1-----0----0---1--|--------1-----0----0---1--|-----3--1-----0----0---1--|--------1-----3----1---3---||
|*-----------0-----0--------|-----0-----0-----0--------|-----------0-----0--------|-----0-----------0--------*||
|*--------------------------|--------------------------|--------------------------|--------------------------*||
|---------------------------|--------------------------|--------------------------|--0-----------0------------||
|---1-----------1-----------|--3-----------3-----------|--0-----------0-----------|---------------------------||



   Q    Q    Q    Q       Q    Q    Q    Q       Q    Q    Q    Q       E  E  E  E  E  E  E  E   
-------------4---------|----------------------|-------4----4---------|-----------1--4--1--------|
--------2---------4----|--4---------4----6----|--2---------1----1----|--2--1--2-----------4--2--|
*--1-------------------|--5----6--------------|--1---------1---------|--------------------------|
*----------------------|----------------------|----------------------|--------------------------|
-----------------------|----------------------|----------------------|--1-----------------------|
---2-------------------|--4-------------------|--1-------------------|--------------------------|



  H        H           H.           Q       H        H           E  E  E  E  E  E  E  E     
--------------------|--4------------6----|--4-----------------|-----9--8------------------||
-----------2--------|--4-----------------|--1--------4--------|-----------9--6------------||
--1-----------------|--------------------|--1-----------------|--6--------------8--6-----*||
--------------------|--------------------|--------------------|--8--------------------6--*||
--------------------|--------------------|--------------------|--8------------------------||
--2-----------------|--4-----------------|--1-----------------|--6------------------------||



   E  E  E  E  E  S E.  E     E  E  E  E  E  S E.  E     E  E  E  E  E  S E.  E     E  E  E  E  E  S E.  E     
---------------------------|--------------------------|--------------------------|-----------1---------------||
------4--2-----1----1---2--|--L-----2-----1----1---2--|-----4--2-----1----1---2--|--L-----2-----4----2---4---||
*--1--------1-----1--------|-----1-----1-----1--------|--1--------1-----1--------|-----1-----------1--------*||
*--------------------------|--------------------------|--------------------------|--------------------------*||
---------------------------|--------------------------|--------------------------|---------------------------||
---------------------------|--------------------------|--------------------------|---------------------------||



Duration Legend
---------------
W - whole
H - half
Q - quarter
E - 8th
S - 16th
T - 32nd
X - 64th
. - note dotted
|-n-|  - n-tuplets


Tablature Legend
----------------
L - tied note
x - dead note
g - grace note
(n) - ghost note
> - accentuded note
NH - natural harmonic
AH - artificial harmonic
TH - tapped harmonic
SH - semi harmonic
PH - pitch harmonic
h - hammer on
p - pull off
b - bend
br - bendRelease
pb - preBend
pbr - preBendRelease
brb - bendReleaseBend
\n/ - tremolo bar dip
\n - tremolo bar dive
-/n - tremolo bar Release up
/n\ - tremolo bar inverted dip
/n - tremolo bar return
-\n - tremolo bar Release down
S - shift slide
s - legato slide
/ -  slide into from below or out of upwards
\ -  slide into from above or out of downwards
~ - vibrato
W - wide vibrato
tr - trill
TP - tremolo picking
T - tapping
S - slap
P - pop
< - fade in
^ - brush up
v - brush down
Login or Register to remove this ad.

5 comments on Undertale

Amazing!

5

Thanks for the awesome tab man!

Awesome

Sweet Adaption man, thanks!

Amaz

5

ing

Criticism

5

You know, I really love your tab but whenever I'm playing this through I can't help but feel that the ending section is just really unsatisfying. Like the strumming section is pretty much the highlight and the return to a slower/quieter sound fits very well but what follows after feels kinda disconnected from the rest.

Maybe that's a problem of the track itself but thought I'd just put my thoughts out there. Never listened to the original but even if this is an 100% accurate transcription there might still be way to improve on it with some original ideas or simply cutting out/transforming some segments.

Formatting

5

This is a fantastic tab, and I'm already trying to play it in my head.

I reformatted your txt document in landscape orientation (I couldn't quite manage it in portrait) with a bunch of line spacing and whatnot so that the strings don't wrap unreadably and the measures don't split strings across two pages, so I wanted to ask if I could email/share the PDF with you.