Spear of Justice (Undertale) Ukulele Tab

Submitted: Jan 13, 2018 by ark626

3
Average: 3 (2 votes)
Download | Listen
Game: Undertale
Composer(s): Toby Fox
Style: Transcription

AutoScroll: Slow | Medium | Fast
                                Spear of Justice
                                   Undertale
                             Composed  by Toby Fox
                        Tabbed by the Ark626 08.01.2018

6/8

  |                       |                         
|--------------------------------------------------|
|---------------------1---0------------------------|
|-2-----------2-------------------0-------2--------|
|-0------------------------------------------------|
 
  |                       |                         
|--------------------------------------------------|
|---------------------1---0------------------------|
|-2-----------2-------------------0-------2--------|
|-0------------------------------------------------|
 
  |                       |                         
|--------------------------------------------------|
|---------------------1---0------------------------|
|-2-----------2-------------------2-------0--------|
|-0------------------------------------------------|
 
  |                       |                         
|-1---------------1-------0------------------------|
|-------------------------1---------------1--------|
|-2-------0---------------0-------2----------------|
|--------------------------------------------------|
 
  |                       |                         
|--------------------------------------------------|
|---------------------1---0------------------------|
|-2-----------2-------------------0-------2--------|
|-0------------------------------------------------|
 
  |                       |                         
|--------------------------------------------------|
|---------------------1---0------------------------|
|-2-----------2-------------------0-------2--------|
|-0------------------------------------------------|
 
  |                       |                         
|--------------------------------------------------|
|---------------------1---0------------------------|
|-2-----------2-------------------2-------0--------|
|-0------------------------------------------------|
 
  |                       |                         
|-1---------------1-------0------------------------|
|-------------------------1---------------1--------|
|-2-------0---------------0-------2----------------|
|--------------------------------------------------|
 
  |                       |                         
|--------------------------------------------------|
|---------------------1---0------------------------|
|-2-----------2-------------------0-------2--------|
|-0-------0-----------0---0-------0-------0--------|
 
  |                       |                         
|--------------------------------------------------|
|---------------------1---0------------------------|
|-2-------0---2-------0---0-------0-------2--------|
|-0------------------------------------------------|
 
  |                       |                         
|--------------------------------------------------|
|---------------------1---0------------------------|
|-2-----------2-------------------2-------0--------|
|-0-------0-----------0---0-------0-------0--------|
 
  |                       |                         
|-1---------------1-------0------------------------|
|-------------------------1---------------1--------|
|-2-------0---------------0-------2----------------|
|--------------------------------------------------|
 
  |                       |                         
|--------------------------------------------------|
|---------------------1---0------------------------|
|-2-----------2-------------------0-------2--------|
|-0-------0-----------0---0-------0-------0--------|
 
  |                       |                         
|--------------------------------------------------|
|---------------------1---0------------------------|
|-2-------0---2-------0---0-------0-------2--------|
|-0------------------------------------------------|
 
  |                       |                         
|--------------------------------------------------|
|---------------------1---0------------------------|
|-2-----------2-------------------2-------0--------|
|-0-------0-----------0---0-------0-------0--------|
 
  |                       |                         
|-1---------------1-------0------------------------|
|-------------------------1---------------1--------|
|-2-------0---------------0-------2----------------|
|--------------------------------------------------|
 
  |                       |                         
|--------------------------------------------------|
|---------------------2---1------------------------|
|-3-----------3-------------------1-------3--------|
|-1-------1-----------1---1-------1-------1--------|
 
  |                       |                         
|--------------------------------------------------|
|---------------------2---1------------------------|
|-3-------1---3-------1---1-------1-------3--------|
|-1------------------------------------------------|
 
  |                       |                         
|--------------------------------------------------|
|---------------------2---1------------------------|
|-3-----------3-------------------3-------1--------|
|-1-------1-----------1---1-------1-------1--------|
 
  |                       |                         
|-2---------------2-------1------------------------|
|-0-----------------------2---------------2--------|
|-3-------1---------------1-------3----------------|
|--------------------------------------------------|
 
  |                       |                         
|--------------------------------------------------|
|---------------------2---1------------------------|
|-3-----------3-------------------1-------3--------|
|-1-------1-----------1---1-------1-------1--------|
 
  |                       |                         
|--------------------------------------------------|
|---------------------2---1------------------------|
|-3-------1---3-------------------1-------3--------|
|-1------------------------------------------------|
 
  |                       |                         
|--------------------------------------------------|
|---------------------2---1------------------------|
|-3-----------3-------------------3-------1--------|
|-1-------1-----------1---1-------1-------1--------|
 
  |                       |                         
|-2---------------2-------1------------------------|
|-0-----------------------2---------------2--------|
|-3-------1---------------1-------3----------------|
|--------------------------------------------------|
 
  |                       |                         
|-2-----------------------1---------------1--------|
|---------------------------------3----------------|
|-4-------4-------1-------3------------------------|
|-1------------------------------------------------|
 
  |                       |                         
|-2-------2---------------1---------------1--------|
|--------------------------------------------------|
|-3-------4-------1-------3-------1-------3--------|
|-1---------------1---------------0----------------|
 
  |                       |                         
|-2-----------------------1------------------------|
|--------------------------------------------------|
|-4-------4-------1-------3---------------1---4----|
|-1-----------------------------------1------------|
 
  |                       |                         
|---------------------2-----------1---2-------1----|
|--------------------------------------------------|
|-3-----------------------1-----------3---1--------|
|-1-------1---1---1-------1------------------------|
 
  |                       |                         
|-2-----------1-------------------1---2------------|
|-----------------------2-0------------------------|
|-3-----------------------1-------3-------1---3----|
|-1-------1-------1---1----------------------------|
 
  |                       |                         
|-2-----------1------------------------------------|
|---------------------------------2-------0--------|
|-3-------------------3---1-------3-------3--------|
|-1-------1-------1-------1------------------------|
 
  |                       |                         
|--------------------------------------------------|
|-2---0---------------------------0-------0--------|
|-3-------3---1---3-------3------------------------|
|---------------------1----------------------------|
 
  |                       |                         
|---------------------2-----------1---2-------1----|
|--------------------------------------------------|
|-3-----------------------1-------3-------1--------|
|-1-------1---1---1-------1------------------------|
 
  |                       |                         
|-2-----------1-------------------1---2------------|
|-----------------------2-0------------------------|
|-3-----------------------1-------3-------1---3----|
|-1-------1-------1---1----------------------------|
 
  |                       |                         
|-2-----------1------------------------------------|
|---------------------------------2-------0--------|
|-3-------------------3---1-------3-------3--------|
|-1-------1-------1-------1------------------------|
 
  |                       |                         
|---------------------------------------------1----|
|-2---0---------------------------0-------0--------|
|-3-------3---1---3-------3------------------------|
|---------------------1-------------------1--------|
 
  |                       |                         
|-2-------2---2-------2---1-------1---2---1---2----|
|-------------------------2------------------------|
|-3-----------------------1------------------------|
|-1------------------------------------------------|
 
  |                       |                         
|-1-----------4-------------------------------1----|
|-2------------------------------------------------|
|-1-----------------------3------------------------|
|-------------------------1-----------1---1--------|
 
  |                       |                         
|-2-------2---2-------2---1-------1---2---1---2----|
|-------------------------2------------------------|
|-3-----------------------1------------------------|
|-1------------------------------------------------|
 
  |                       |                         
|-2-----------6-----------4-------------------1----|
|-------------------------2------------------------|
|-4-----------------------1------------------------|
|-1-----------------------------------1---1--------|
 
  |                       |                         
|-2-------2---2-------2---1-------1---2---1---2----|
|-------------------------2-------2---2---2---2----|
|-3-----------------------1------------------------|
|-1-------1---1---1---1----------------------------|
 
  |                       |                         
|-1-----------4-------------------------------1----|
|-2-------2---2---2---2----------------------------|
|-1-----------------------3------------------------|
|-------------------------1-------1---1---1---1----|
 
  |                       |                         
|-2-------2---2-------2---1-------1---2---1---2----|
|-------------------------2-------2---2---2---2----|
|-3-----------------------1------------------------|
|-1-------1---1---1---1----------------------------|
 
  |                       |                         
|-2-----------6-----------4------------------------|
|-------------------------2-------2---2---2---2----|
|-4-------4---4---4---4---1------------------------|
|-1------------------------------------------------|
 
  |                       |                         
|---------------------2-----------1---2-------1----|
|--------------------------------------------------|
|-3-----------------------1-----------3---1--------|
|-1-------1---1---1-------1------------------------|
 
  |                       |                         
|-2-----------1-------------------1---2------------|
|-----------------------2-0------------------------|
|-3-----------------------1-------3-------1---3----|
|-1-------1-------1---1----------------------------|
 
  |                       |                         
|-2-----------1------------------------------------|
|---------------------------------2-------0--------|
|-3-------------------3---1-------3-------3--------|
|-1-------1-------1-------1------------------------|
 
  |                       |                         
|--------------------------------------------------|
|-2---0---------------------------0-------0--------|
|-3-------3---1---3-------3------------------------|
|---------------------1----------------------------|
 
  |                       |                         
|---------------------2-----------1---2-------1----|
|--------------------------------------------------|
|-3-----------------------1-------3-------1--------|
|-1-------1---1---1-------1------------------------|
 
  |                       |                         
|-2-----------1-------------------1---2------------|
|-----------------------2-0------------------------|
|-3-----------------------1-------3-------1---3----|
|-1-------1-------1---1----------------------------|
 
  |                       |                         
|-1-------------------2-----------2-------1--------|
|-2------------------------------------------------|
|-------------3-----------1-------3-------3--------|
|-1-------1-------1--------------------------------|
 
  |                       |                         
|-2---1---------------1----------------------------|
|-------------2------------------------------------|
|--------------------------------------------------|
|-1-------1-------1-------1-------1-------1--------|
 
  |                       |                         
|-1-------------------1---1-------0---1---3---0----|
|--------------------------------------------------|
|-2-------3---3---3---3---3-------3---3---0---3----|
|-0-----------0-----------0------------------------|
 
  |                       |                         
|-1-----------0-----------------------1---3---5----|
|-1-------1---1---1---1-1-1-----------1---1---1----|
|-------------------------3-------5-------0---2----|
|---------------------0---2-------2----------------|
 
  |                       |                         
|-1-----------0------------------------------------|
|-------------1-------------------1----------------|
|---------------------2-------------------3--------|
|-0-------0---0---0---0---0-------0---0---0---0----|
 
  |                       |                         
|-----------------------------------------1--------|
|-1-------1---1---1---1---1-------1---1---1---1----|
|-----3---2---0-----------2-------------------3----|
|-------------0-------0----------------------------|
 
  |                       |                         
|-1-------------------1---1-------0---1---3---0----|
|--------------------------------------------------|
|-2-------3---3---3---3---3-------3---3---0---3----|
|-0-----------0-----------0------------------------|
 
  |                       |                         
|-1-----------0-----------------------1---3---5----|
|-1-------1---1---1---1-1-1-----------1---1---1----|
|-------------------------3-------5-------0---2----|
|---------------------0---2-------2----------------|
 
  |                       |                         
|-8-----------1-------1---3-------1-------0--------|
|-1-----------10-----------------------------------|
|-7-------7---2---7-------0------------------------|
|-7-----------0-------0---0-------0---0---0---0----|
 
  |                       |                         
|-1---0---------------0----------------------------|
|-------------1-------1----------------------------|
|-2-----------------------2------------------------|
|-0-------0---0---0---0---0-------0---0---0---0----|
 
  |                       |                         
|-1-------------------1---1-------0---1---3---0----|
|--------------------------------------------------|
|-2-------3---3---3---3---3-------3---3---0---3----|
|-0-----------0-----------0------------------------|
 
  |                       |                         
|-1-----------0-----------------------1---3---5----|
|-1-------1---1---1---1-1-1-----------1---1---1----|
|-------------------------3-------5-------0---2----|
|---------------------0---2-------2----------------|
 
  |                       |                         
|-1-----------0------------------------------------|
|-------------1-------------------1----------------|
|---------------------2-------------------3--------|
|-0-------0---0---0---0---0-------0---0---0---0----|
 
  |                       |                         
|-----------------------------------------1--------|
|-1-------1---1---1---1---1-------1---1---1---1----|
|-----3---2---0-----------2-------------------3----|
|-------------0-------0----------------------------|
 
  |                       |                         
|-1-------------------1---1-------0---1---3---0----|
|--------------------------------------------------|
|-2-------3---3---3---3---3-------3---3---0---3----|
|-0-----------0-----------0------------------------|
 
  |                       |                         
|-1-----------0-----------------------1---3---5----|
|-1-------1---1---1---1-1-1-----------1---1---1----|
|-------------------------3-------5-------0---2----|
|---------------------0---2-------2----------------|
 
  |                       |                         
|-8-----------1-------1---3-------1-------0--------|
|-1-----------10-----------------------------------|
|-7-------7---2---7-------0------------------------|
|-7-----------0-------0---0-------0---0---0---0----|
 
  |                       |                         
|-1---0---------------0----------------------------|
|-------------1-------1----------------------------|
|-2-----------------------2------------------------|
|-0-------0---0---0---0---0-------0---0---0---0----|
 
  |                       |                         
|--------------------------------------------------|
|--------------------------------------------------|
|--------------------------------------------------|
|-0------------------------------------------------|
 


Created with TablEdit http://www.tabledit.com/
Login or Register to remove this ad.