Spear of Justice (Undertale) Guitar Tab

Submitted: Nov 22, 2015 by WhimsicallyDandy

4.666665
Average: 4.7 (3 votes)
Download | Listen
Game: Undertale
Composer(s): Toby Fox
Style: Transcription

AutoScroll: Slow | Medium | Fast
'NGAHHH!!' and 'Spear of Justice'
Undertale
Composed by Toby Fox
Tabbed by WhimsicallyDandy
Made 4th of November 2015


Intro

e|--------------------------------------------------------
B|--8----6p5-----8----6p5-----8----6p5---------------6----
G|-----7-----5-7----7-----5-7----7-----7-5-7-5-----5------
D|---------------------------------------------8-7-------- * 4
A|--------------------------------------------------------
E|--------------------------------------------------------

e|--------------------------------------------------------
B|--9----7p6-----9----7p6-----9----7p6---------------7----
G|-----8-----6-8----8-----6-8----8-----8-6-8-6-----6------
D|---------------------------------------------9-8-------- * 2
A|--------------------------------------------------------
E|--------------------------------------------------------

e|------------6---------------------------
B|--9-------8---9---------8-9-------------
G|----9-6-8-------9-6---8-----9-6-8-------
D|--------------------8-------------------
A|----------------------------------------
E|----------------------------------------


  A

e|------------4--7-4--6-7-9-6-7~--6---------------9-11----
B|----------------------------------9p7p5---11-12---------
G|----6h9p8~----------------------------------------------
D|--8-----------------------------------------------------
A|--------------------------------------------------------
E|--------------------------------------------------------

e|--------------------------------------------------------
B|--12--11---9-7-5--7p5------9----------------------------
G|---------8------------8p6----8--------------------------
D|--------------------------------------------------------
A|--------------------------------------------------------
E|--------------------------------------------------------

e|------------4--7-4--6-7-9-6-7~--6---------------9-11----
B|----------------------------------9p7p5---11-12---------
G|------9p8~----------------------------------------------
D|----8---------------------------------------------------
A|--7-----------------------------------------------------
E|--------------------------------------------------------

e|--------------------------------------------------------
B|--12--11---9-7-5--7p5------9----------------------------
G|---------8------------8p6----8--------------------------
D|-----------------------------------8h9p8----------------
A|--------------------------------------------------------
E|--------------------------------------------------------


  B

e|------------------6h7p6h7-6--9--------------------------
B|--------------------------------9-----------------------
G|--------------------------------------------------------
D|---9--9-9--9-8---------------------8h9p8----------------
A|--------------------------------------------------------
E|--------------------------------------------------------

e|------------------6h7p6h9-6-----11--9-------------------
B|-----------------------------9----------11--------------
G|--------------------------------------------------------
D|---9--9-9--9-8------------------------8h9p8-------------
A|--------------------------------------------------------
E|--------------------------------------------------------

e|------------------6h7p6h7-6--9--------------------------
B|---12---------------------------9-----------------------
G|--------------------------------------------------------
D|---9--9-9--9-8------------------------8h9p8-------------
A|--------------------------------------------------------
E|--------------------------------------------------------

e|------------------6h7p6h9-6-----11--9-------------------
B|-----------------------------9--------------------------
G|--------------------------------------------------------
D|---9--9-9--9-8------------------------------------------
A|--------------------------------------------------------
E|--------------------------------------------------------


Repeat A then B


  C

e|---------------------9--------------------------9-11-----
B|------9--12-9--11-12---11-12~-11~---------11-12----------
G|--8~-----------------------------13p11p9-----------------
D|---------------------------------------------------------
A|---------------------------------------------------------
E|---------------------------------------------------------

e|---------------------------------------------------------
B|--12--11---9-7-5--7p5------9-----------------------------
G|---------8------------8p6----8-----6h9p8-----------------
D|---------------------------------------------------------
A|---------------------------------9-----------------------
E|---------------------------------------------------------

e|---------------------9--------------------------9-11-----
B|------9--12-9--11-12---11-12~-11~---------11-12----------
G|--L~-----------------------------13p11p9-----------------
D|---------------------------------------------------------
A|---------------------------------------------------------
E|---------------------------------------------------------

e|--14--11-------------------------------------------------
B|---------12-14-12-11--12p11-------11---------------------
G|---------------------------13p11-----13------------------
D|---------------------------------------------------------
A|---------------------------------------------------------
E|---------------------------------------------------------

e|---------------------8--------------------------8-10-----
B|------8--11-8--10-11---10-11~-10~---------10-11----------
G|--7~-----------------------------12p10p8-----------------
D|---------------------------------------------------------
A|---------------------------------------------------------
E|---------------------------------------------------------

e|---------------------------------------------------------
B|--11~-10---8-6-4--6p4------8-----------------------------
G|---------7------------7p5----7-----5h8p7-----------------
D|---------------------------------------------------------
A|---------------------------------8-----------------------
E|---------------------------------------------------------

e|--------------------8-----------------------------10-----
B|-----8--11-8--10-11---10-11~-10~---------10-11-13--------
G|--L~----------------------------12p10p8------------------
D|---------------------------------------------------------
A|---------------------------------------------------------
E|---------------------------------------------------------

e|--13--10-------------------------------------------------
B|---------11-13-11-10--11p10-------10---------------------
G|---------------------------12p10-----12------------------
D|---------------------------------------------------------
A|---------------------------------------------------------
E|---------------------------------------------------------

e|---------------------8--------------------------8-10-----
B|------8--11-8--10-11---10-11~-10~---------10-11----------
G|--7~-----------------------------12p10p8-----------------
D|---------------------------------------------------------
A|---------------------------------------------------------
E|---------------------------------------------------------

e|---------------------------------------------------------
B|--11~-10---8-6-4--6p4------8-----------------------------
G|---------7------------7p5----7-----5h8p7-----------------
D|---------------------------------------------------------
A|---------------------------------8-----------------------
E|---------------------------------------------------------

e|--------------------8-----------------------------10-----
B|-----8--11-8--10-11---10-11~-10~---------10-11-13--------
G|--L~----------------------------12p10p8------------------
D|---------------------------------------------------------
A|---------------------------------------------------------
E|---------------------------------------------------------

e|--13--10----------------------------------15-------------
B|---------11-13-11-10--11p10-------10---------------------
G|---------------------------12p10-----12------------------
D|---------------------------------------------------------
A|---------------------------------------------------------
E|---------------------------------------------------------
Login or Register to remove this ad.