Login or Register to remove this ad.

Show Time! (Mettaton) (Undertale) Guitar Tab

Submitted: Feb 20, 2016 by johnbie (Last updated: Feb 26, 2016)

4.833335
Average: 4.8 (6 votes)
Download | Listen
Game: Undertale
Composer(s): Toby Fox
Style: Arrangement, Fingerstyle

AutoScroll: Slow | Medium | Fast
Show Time!                                         
Song By Toby Fox
Arranged By John Lee


      E  E  E  S E.  S S E  E     E  E  E  S E.  S S E  E     E  S S E  S S E  E  E  E   
E||---3-----1--0-1-----L-0-----|-----0---------------------|----------------------------|
B||-------------------------3--|--3-----3--1---------------|----------------------3--0--|
G||*---------------------------|-------------0-----L-------|--0----0----2---0-----------|
D||*--0--0-------0---0---------|--------0------------2--3--|----------------------------|
A||---------0------------0-----|---------------------0--2--|--3--3--------3----3-----2--|
E||-------------------------4--|--3--3-------3---3---------|---------3------------3-----|


  E  S S E  S S E  E  E  E     E  E  E  S E.  S S E  E     E  E  E  S E.  S S E  E   
----------------0--------0--|-----3--1--0-1-----L-0-----|-----0---------------------|
--2----2----3---------3-----|------------------------3--|--3-----3--1---------------|
----------------------------|---------------------------|-------------0-----L-------|
----------------------------|--0--0-------0---0---------|--------0------------2--3--|
--0--0--------0----0--2--4--|--------0------------0-----|---------------------0--2--|
---------0------------------|------------------------4--|--3--3-------3---3---------|


  E  E  S E  E.  E  E  E     E.  E.  E  S S E  E  E       E.  E.  E  S S Q.      
--------------------------|-----------------------0---||------------------------|
--------------------3--0--|--1---1---0--1------3------||--1---1---0--1----------|
--0--2--0----0---0--------|--------------------------*||------------------------|
----------4---------------|--------------------------*||------------------------|
--3--3-------3---3-----2--|--3---3---2--3-------------||--3---3---2--3----------|
--------3-----------3-----|---------------------------||------------------------|


  E  E  E.  E.  E  E  E     E  E  E.  E.  E  E  E     E  E  E.  E.  E  E  E   
-------------------------|-------------------------|-------------------------|
-------------------------|-------------------------|-------------------------|
-------------------------|-------------------------|-------------------------|
--0--0------0---0--------|--------0----------------|-------------------------|
--------0----------0-----|-------------------0--2--|--3--3------3---3-----2--|
----------------------4--|--3--3------3---3--------|--------3----------3-----|


  E  E  E.  E.  E  E  E     E  E  E.  E.  E  E  E     E  E  E.  E.  E  E  E   
-------------------------|-------------------------|-------------------------|
-------------------------|-------------------------|-------------------------|
-------------------------|-------------------------|-------------------------|
-------------------------|--0--0------0---0--------|--------0----------------|
--0--0------0---0--2--4--|--------0----------0-----|-------------------0--2--|
--------0----------------|----------------------4--|--3--3------3---3--------|


  E  E  E.  E.  E  E  E     E.  E.  E  S S Q      
-------------------------|----------------------||
-------------------------|----------------------||
-------------------------|----------------------||
-------------------------|----------------------||
--3--3------3---3-----2--|--3---3---2--3--------||
--------3----------3-----|----------------------||




Duration Legend
---------------
W - whole
H - half
Q - quarter
E - 8th
S - 16th
. - note dotted


Tablature Legend
----------------
L - tied note
Login or Register to remove this ad.