Ads

Shop (Undertale) Guitar Tab

Submitted: Oct 30, 2017 by tomorning

4.4
Average: 4.4 (5 votes)
Download | Listen
Game: Undertale
Composer(s): Toby Fox
Style: Arrangement, Fingerstyle

AutoScroll: Slow | Medium | Fast

Oct , 30 / 2017

                                                Shop                                                    
                                  from game " UNDERTALE "

Music by Toby Fox
arranged by to*morning


Standard Tuning (EADGBE)

      >    >                  >    >                 >    >                 >    >    >    >     
      Q    Q    Q    E  E     Q    Q    Q    Q       Q    Q    Q    Q       Q    Q    Q    Q     
E||------------------------|----------------------|----------------------|----------------------|
B||---4--------------------|----------------------|----------------------|----------------------|
G||*-------5------------1--|--3----5----3---------|--0---------1----3----|------------3----1----|
D||*-------6---------1-----|-------5---------6----|-------3---------3----|--1-------------------|
A||---4--------------4-----|--3--------------3----|--1-------------------|-------3--------------|
E||------------------------|----------------------|----------------------|--4-------------------|


  >    >                  >    >                 >    >                 >    >    >    >       
  Q    Q    Q    E  E     Q    Q    Q    Q       Q    Q    Q    Q       Q    Q    Q    Q       
-----------------------|----------------------|----------------------|-----------------4-----||
--4--------------------|----------------------|----------------------|------------4----4-----||
-------5------------1--|--3----5----3---------|--0---------1----3----|------------5---------*||
-------6---------1-----|-------5---------6----|-------3---------3----|--6-------------------*||
--4--------------4-----|--3--------------3----|--1-------------------|-------6---------------||
-----------------------|----------------------|----------------------|--4--------------------||


  >    >         >       >    >         >       >    >         >       >    >         >     
  Q    Q    Q    Q       Q    Q    Q    Q       Q    Q    Q    Q       Q    Q    Q    Q     
----------------------|----------------------|------------3---------|----------------------|
-------4----4----4----|--4-------------------|--4-------------------|--4-------------------|
-------5---------5----|-------6----5----6----|-------3---------3----|-------3---------3----|
-------6---------6----|-------6---------6----|-------5---------5----|-------5---------5----|
--4-------------------|--4-------------------|--4-------------------|--4-------------------|
----------------------|----------------------|----------------------|----------------------|


  >    >         >       >    >         >       >    >         >       >    >                
  Q    Q    Q    Q       Q    Q    Q    Q       Q    Q    Q    Q       Q    Q    Q    E  E   
----------------------|----------------------|----------------------|-----------------------|
-------4----4----4----|--4----2----1----2----|--4-------------------|-----------------------|
-------3---------3----|-------3---------3----|-------2---------2----|-------2------------3--|
-------1---------1----|----------------------|-------3---------3----|-------3---------3-----|
--3-------------------|--3-------------------|--3-------------------|--3--------------3-----|
----------------------|----------------------|----------------------|-----------------------|


  >    >         >       >    >                 >    >         >       >    >         >     
  Q    Q    Q    Q       Q    Q    Q    Q       Q    Q    Q    Q       Q    Q    Q    Q     
----------------------|----------------------|----------------------|----------------------|
--1----1----1----1----|--1-------------------|-------1----1----1----|--1---------1----4----|
-------1---------1----|-------3----1---------|----------------------|-------3---------3----|
-------3---------3----|-------3---------3----|-------1---------1----|-------1--------------|
--1-------------------|--1--------------1----|--3-------------------|--3-------------------|
----------------------|----------------------|----------------------|----------------------|


  >    >         >       >                      >    >    >    >       >         >           
  Q    Q    Q    Q       Q    Q    Q    Q       Q    Q    Q    Q       Q    Q    Q    Q      
----------------------|----------------------|----------------------|--3---------1---------||
--6-------------------|------------1---------|-----------------4----|--4---------2---------||
-------5---------5----|-----------------1----|--3---------3----3----|--4---------0---------||
-------6---------6----|----------------------|--5---------5---------|----------------------||
--4-------------------|--4-------------------|-------6--------------|----------------------||
----------------------|----------------------|----------------------|----------------------||   da capo...
Login or Register to remove this ad.

1 comment on Shop

Very nice! :) if you drop

5

Very nice! :)
if you drop half step down, then it's the original key (G)