Shop (Undertale) Guitar Tab

Submitted: Jun 01, 2017 by Ttegdap

5
Average: 5 (2 votes)
Download | Listen
Game: Undertale
Composer(s): Toby Fox
Style: Arrangement, Fingerstyle

AutoScroll: Slow | Medium | Fast
                                     Shop


Acoustic Guitar
                                        |--3--|                                
      Q    E  Q.     E  E     Q    Q    E  E  E  Q       Q    E  E  Q    Q     
E||---7-----------------0--|-------4-------4----------|------------------2----|
B||--------5---------0-----|--7----4----7-----7--5----|--4----------5---------|
G||*-------6---------------|-------4-------------4----|-------2----------2----|
D||*-------7---------------|-------4------------------|-------4---------------|
A||---0--------------0-----|-------6------------------|-------4----------4----|
E||------------------------|--4------------------4----|--2--------------------|


                                                              |--3--|        
  Q    E  E  E  E  E  E     Q    E  Q.     E  E     Q    Q    E  E  E  Q     
-------------2-----0-----|--7-----------------0--|-------4-------4----------|
--0----------------------|-------5---------0-----|--7----4----7-----7--5----|
-------1-----------------|-------6---------------|-------4-------------4----|
-------1-----------------|-------7---------------|-------4------------------|
-------2-----------------|--0--------------0-----|-------6------------------|
--0----------------------|-----------------------|--4------------------4----|


  Q    E  E  Q    Q       Q    E  E  E  E  E  E       E  E  Q    Q    Q     
------------------2----|--0-----------------------||--------7----7----7----|
--4----------5---------|-------------0-----2------||--------5--------------|
-------2----------2----|-------1-----------------*||--------6---------6----|
-------4---------------|-------------1-----------*||--------7--------------|
-------4----------4----|-------2------------------||--0---------------0----|
--2--------------------|--0-----------------------||-----------------------|


  Q    Q    Q    Q       Q    E  E   Q    E  E     Q    E  Q.     E  E   
--7----5----4----5----|--7----------11----------|--7--------------------|
-------5--------------|-------4-----------------|-------4---------------|
-------6---------6----|-------4-----------------|-------4---------4-----|
-------7--------------|-------4-----------------|-------4---------------|
--0--------------0----|--0----------------0-----|--0--------------0-----|
----------------------|-------------------------|-----------------------|


  E  E  Q    Q    Q       Q    Q    Q    Q       Q    E  Q.     E  E   
--------7----7----7----|--7----5----4----5----|--7--------------------|
--------4--------------|-------7--------------|--6--------------------|
--------4---------4----|-------4---------4----|-------4---------------|
--------4--------------|-------6--------------|-------6---------6-----|
-----------------------|----------------------|-----------------------|
--4---------------4----|--4----4---------4----|--4--------------4-----|


  Q    E  Q.     E  E     Q    Q    Q    Q       Q    Q    Q    Q     
--------------------0--|--4----4----4----4----|--4----2--------------|
-----------------------|-------2--------------|-------2----5----2----|
--4--------------6-----|-------2---------2----|-------2---------2----|
-------6---------------|-------2--------------|-------2--------------|
-------6---------6-----|-------4--------------|-------4--------------|
--4--------------4-----|--2--------------2----|--2--------------2----|


  E  E  Q    Q    Q       Q    Q    Q    Q       Q     E  Q.      E  E   
--------4----4----4----|--4---------4----7----|--9----------------------|
--------4--------------|-------7--------------|--------9----------9-----|
--------4---------4----|-------4---------4----|--------9----------9-----|
--------4--------------|-------4--------------|-------11---------11-----|
--------6--------------|-------6--------------|--0----------------------|
--4---------------4----|--4--------------4----|-------------------------|


  E  Q.     Q    Q       Q    E  E  E  E  E  E     E  Q.     E  Q    E    
------------4----0----|--2----------------------|-----------------------||
----------------------|--0----------------0-----|--4---------2----------||
----------------------|-------------0-----------|--0--------------------||
----------------------|--4----4-----1-----4-----|------------1----------||
--0-------------------|-------2-----------------|-----------------------||
----------------------|-------------------------|-----------------------||




Duration Legend
---------------
W - whole
H - half
Q - quarter
E - 8th
S - 16th
T - 32nd
X - 64th
. - note dotted
|-n-|  - n-tuplets


Tablature Legend
----------------
L - tied note
x - dead note
g - grace note
(n) - ghost note
> - accentuded note
NH - natural harmonic
AH - artificial harmonic
TH - tapped harmonic
SH - semi harmonic
PH - pitch harmonic
h - hammer on
p - pull off
b - bend
br - bendRelease
pb - preBend
pbr - preBendRelease
brb - bendReleaseBend
\n/ - tremolo bar dip
\n - tremolo bar dive
-/n - tremolo bar Release up
/n\ - tremolo bar inverted dip
/n - tremolo bar return
-\n - tremolo bar Release down
S - shift slide
s - legato slide
/ -  slide into from below or out of upwards
\ -  slide into from above or out of downwards
~ - vibrato
W - wide vibrato
tr - trill
TP - tremolo picking
T - tapping
S - slap
P - pop
< - fade in
^ - brush up
v - brush down
Login or Register to remove this ad.