Ruins (Undertale) Guitar Tab

Submitted: Mar 04, 2016 by fluffylol32 (Last updated: Mar 26, 2016)

4
Average: 4 (4 votes)
Download | Listen
Game: Undertale
Composer(s): Toby Fox
Style: Transcription

AutoScroll: Slow | Medium | Fast
Guitar 1 (repeats throughout song)
e|---------------------------------------------------------------|
B|----4---------------------------4------------------------------|
G|-1-----4---3--4--6-----------1-----4---3--4--6-----------------|
D|--------------------------4------------------------------------|
A|---------------------------------------------------------------|
E|---------------------------------------------------------------|

Melody:
e|----------------------4--7--4----6-7-9-6-7---6-----------------|
B|-6---7---6-7-6------4----------------------------9-7-6---------|
G|---------------6-----------------------------------------------|
D|---------------------------------------------------------------|
A|---------------------------------------------------------------|
E|---------------------------------------------------------------|

e|-----9--11--13----7--6-----4-2-1-2-1-----4---------------------|
B|-12---------------------4------------4-2---4---------2---------|
G|-----------------------------------------------3-4-3-----------|
D|---------------------------------------------------------------|
A|---------------------------------------------------------------|
E|---------------------------------------------------------------|

e|-13-14-13-14-13--16--11--6-7-6-9---18-19-18-21-----------------|
B|---------------------------------------------------------------|
G|---------------------------------------------------------------|
D|---------------------------------------------------------------|
A|---------------------------------------------------------------|
E|---------------------------------------------------------------|

| /  slide up
| \  slide down
| h  hammer-on
| p  pull-off
| ~  vibrato
| +  harmonic
| x  Mute note
Login or Register to remove this ad.