Ads

Metal Crusher (Undertale) Guitar Tab

Submitted: Apr 26, 2016 by johnbie (Last updated: Jan 23, 2017)

4.6
Average: 4.6 (5 votes)
Download | Listen
Game: Undertale
Composer(s): Toby Fox
Style: Arrangement, Fingerstyle

Click here for a video example.

AutoScroll: Slow | Medium | Fast
Metal Crusher                                          
Song by Toby Fox
Arranged By John Lee

Capo 3



     E.  S E  E     E.  S Q       E.  S E  E     Q    Q       E      S  S  E  S  S   
E||--0---0-------|-------------|--------------|------------|------------------------|
B||--------0--0--|-------------|--------------|------------|--3g5g6--5p-3h-5--3p-1h-|
G||--------------|--0---0------|--------------|------------|------------------------|
D||--------------|--------2----|--------------|--2---------|------------------------|
A||--------------|-------------|--2---2-2--2--|------------|------------------------|
E||--------------|-------------|--------------|------------|--0---------------------|


  E  S  S  E  S  S    S  S  S  S  S S S  S    E  S S  E  S  S    E      S  S E   S S  
-------------------|-----------------------|------------------|----------------------|
--0----------------|------------------1p-0-|-------0h-1--0h-1-|--1g2g3--1p-0-------0-|
-----2p-1h-2-------|----------------1------|--2--2------------|--------------1h--2---|
--------------2h-3-|--2h-3p-2h-3p-2--------|------------------|----------------------|
--0----------------|-----------------------|--0---------------|----------------------|
-------------------|--0--------------------|------------------|--0-------------------|


  E   S S E  S  S    S  S  S  S  S S  S S    E  S  S  E  E         E      S  S  E  S  S   
------------------|-----------------------|--------------3g4g5--|------------------------|
--1p--0-----------|----------------1p-0---|---------------------|--3g5g6--5p-3h-5--3p-1h-|
--------2---------|---------------------1-|--2--2p-1h-2---------|------------------------|
----------2--2h-3-|--2h-3p-2h-3p-2--------|---------------------|------------------------|
--0---------------|-----------------------|--0------------------|------------------------|
------------------|--0--------------------|---------------------|--0---------------------|


  E  S  S  E  S  S    S  S  S  S  S S S  S    E  S S  E  S  S    E      S  S E   S S  
-------------------|-----------------------|------------------|----------------------|
--0----------------|------------------1p-0-|-------0h-1--0h-1-|--1g2g3--1p-0-------0-|
-----2p-1h-2-------|----------------1------|--2--2------------|--------------1h--2---|
--------------2h-3-|--2h-3p-2h-3p-2--------|------------------|----------------------|
--0----------------|-----------------------|--0---------------|----------------------|
-------------------|--0--------------------|------------------|--0-------------------|


  E   S S E  S  S    S  S  S  S  S S  S S    E  S  S  S S  S S     Q    E  E     Q    E  E   
------------------|-----------------------|------------------0h-|--1----------|-------------|
--1p--0-----------|----------------1p-0---|-------------1h-3----|----------1--|-------------|
--------2---------|---------------------1-|--2--2p-1h-2---------|-------------|--2----------|
----------2--2h-3-|--2h-3p-2h-3p-2--------|---------------------|-------------|----------3--|
--0---------------|-----------------------|--0------------------|-------3-----|-------3-----|
------------------|--0--------------------|---------------------|--1----------|--1----------|


  Q    E  E     Q    E  E     Q    E  E     Q.     E     S S E  S S E     E.  S S S S S  
-------------|--0----------|-------------|------------|----------------|------------0-3-|
-------------|-------4-----|--3-------0--|------------|---------0---0--|--1---1-1-3-----|
--1----------|-------------|-------------|--1---------|--2-1-2----2----|----------------|
-------2-----|--2-------2--|--0----2-----|---------2--|----------------|----------------|
-------------|-------------|-------------|------------|--0------2------|--3-------------|
--0-------0--|-------------|-------------|--0---------|----------------|----------------|


  Q    E  E     Q    E  E     Q    E  E     Q    E  E     Q.     S S    Q    Q     
--5-------3--|--1----------|--0----4-----|-------0-----|-------------|-------1----|
-------------|----------3--|-------------|--0----------|--3--------3-|--3---------|
-------------|-------------|-------------|-------------|-------------|------------|
-------------|-------------|-------------|-------------|--0----------|------------|
-------------|-------------|-------------|-------------|-------------|------------|
--1----1-----|--1----1-----|--0-------0--|--0-------0--|-------------|------------|


  Q.     S S    S S S S Q       E      S  S  E  S  S     E  S  S  E  S  S  
--0----------|---------------|------------------------|-------------------|
-----------5-|--5-6-5-4-5----|--3g5g6--5p-3h-5--3p-1h-|--0----------------|
-------------|---------------|------------------------|-----2p-1h-2-------|
-------------|---------------|------------------------|--------------2h-3-|
-------------|---------------|------------------------|--0----------------|
--0----------|---------------|--0---------------------|-------------------|


  S  S  S  S  S S S  S    E  S S  E  S  S    E      S  S E   S S    E   S S E  S  S  
-----------------------|------------------|----------------------|------------------|
------------------1p-0-|-------0h-1--0h-1-|--1g2g3--1p-0-------0-|--1p--0-----------|
----------------1------|--2--2------------|--------------1h--2---|--------2---------|
--2h-3p-2h-3p-2--------|------------------|----------------------|----------2--2h-3-|
-----------------------|--0---------------|----------------------|--0---------------|
--0--------------------|------------------|--0-------------------|------------------|


  S  S  S  S  S S  S S    E  S  S  E  E         E      S  S  E  S  S     E  S  S  E  S  S  
-----------------------|--------------3g4g5--|------------------------|-------------------|
----------------1p-0---|---------------------|--3g5g6--5p-3h-5--3p-1h-|--0----------------|
---------------------1-|--2--2p-1h-2---------|------------------------|-----2p-1h-2-------|
--2h-3p-2h-3p-2--------|---------------------|------------------------|--------------2h-3-|
-----------------------|--0------------------|------------------------|--0----------------|
--0--------------------|---------------------|--0---------------------|-------------------|


  S  S  S  S  S S S  S    E  S S  E  S  S    E      S  S E   S S    E   S S E  S  S  
-----------------------|------------------|----------------------|------------------|
------------------1p-0-|-------0h-1--0h-1-|--1g2g3--1p-0-------0-|--1p--0-----------|
----------------1------|--2--2------------|--------------1h--2---|--------2---------|
--2h-3p-2h-3p-2--------|------------------|----------------------|----------2--2h-3-|
-----------------------|--0---------------|----------------------|--0---------------|
--0--------------------|------------------|--0-------------------|------------------|


  S  S  S  S  S S  S S    E  S  S  Q       E  E  E  E     E  E  E  E     E  E  E  E   
-----------------------|----------------|--------------|--------------|--------------|
----------------1p-0---|----------------|--------------|--------------|--------------|
---------------------1-|--2--2p-1h-2----|--------------|--------------|--------------|
--2h-3p-2h-3p-2--------|----------------|--------2--2--|--------2--2--|--------2--2--|
-----------------------|--0-------------|--------------|--0--0--------|--------------|
--0--------------------|----------------|--0--0--------|--------------|--0--0--------|


  E  E  E  E     E  E  E  E     E  E  E  E     E  E  E  E     E  E  E  E    
--------------|--------------|--------------|--------------|--------5-----||
--------------|--------------|--------------|--------------|--------------||
--------------|--------------|--------------|--------------|-----------2--||
--------2--2--|--------2--2--|--------2--2--|--------2--2--|--------------||
--0--0--------|--------------|--0--0--------|--------------|--0--0--------||
--------------|--0--0--------|--------------|--0--0--------|--------------||




Duration Legend
---------------
W - whole
H - half
Q - quarter
E - 8th
S - 16th
. - note dotted


Tablature Legend
----------------
g - grace note
(n) - ghost note
h - hammer on
p - pull off
Login or Register to remove this ad.