Ads

Memory (Undertale) Guitar Tab

Submitted: Mar 10, 2016 by Alleeelex

5
Average: 5 (1 vote)
Download | Listen
Game: Undertale
Composer(s): Toby Fox
Style: Arrangement, Fingerstyle

AutoScroll: Slow | Medium | Fast
Memory
From Undertale
Composed by tobyfox
Tabbed by Alleeelex
5 March 2016

Capo 9
80 BPM
4/4 Time

    H.                E  E     E  E  E  E  S E.  Q       E  E  E  E  S E.  E  E     E  E  E  E  S E.  Q
e|--------------------------|-------------------------|--------------------------|-------------------------|
B|--------------------------|--3--1-----0----0---1----|-----1-----0----0---1-----|--3--1-----0----0---1----|
G|-----------------------0--|--------0----------------|--0-----0--------------0--|--------0----------------|
D|--------------------------|-------------------------|--------------------------|-------------------------|
A|--------------------------|-------------------------|--------------------------|-------------------------|
E|--------------------------|--1-----1-----1-----1----|--1-----1-----1-----1-----|--1-----1-----1-----1----|

   E  E  E  E  S E.  E  E     E  E  E  E  S E.  Q       E  E  E  E  S E.  E  E     E  E  E  E  S E.  Q
|--------0-----------------|-------------------------|--------------------------|-------------------------|
|-----1-----3----1---3-----|--3--1-----0----0---1----|-----1-----0----0---1-----|--3--1-----0----0---1----|
|--0--------------------0--|--------0----------------|--0-----0--------------0--|--------0----------------|
|--------------------------|-------------------------|--------------------------|-------------------------|
|--------------------------|-------------------------|--------------------------|-------------------------|
|--1-----1-----1-----1-----|--0-----0-----0-----0----|--0-----0-----0-----0-----|--0-----0-----0-----0----|

   E  E  E  E  S E.  E  E       E  E  E  E  S E.  Q       E  E  E  E  S E.  E  E     E  E  E  E  S E.  Q
|--------0-----------------||--------------------------|--------------------------|-------------------------|
|-----1-----3----1---3-----||---3--1-----0----0---1----|-----1-----0----0---1-----|--3--1-----0----0---1----|
|--0--------------------0--||*--------0----------------|--0-----0-----------0--0--|--------0----------------|
|-----------------------0--||*-----------2-------------|--0--2-----0----2------0--|-----------2-------------|
|--0-----0-----0-----0-----||--------------------------|--------------------------|-------------------------|
|--------------------------||---1-----1-----1-----1----|--1-----1-----1-----1-----|--1-----1-----1-----1----|

   E  E  E  E  S E.  E  E     E  E  E  E  S E.  Q       E  E  E  E  S E.  E  E     E  E  E  E  S E.  Q
|--------0-----------------|-------------------------|--------------------------|-------------------------|
|-----1-----3----1---3-----|--3--1-----0----0---1----|-----1-----0----0---1-----|--3--1-----0----0---1----|
|--0--------2-----------0--|--------0----------------|--0-----0-----------0--0--|--------0----------------|
|--0--2----------2------0--|-----------2-------------|--0--2-----0----2------0--|-----------2-------------|
|--------------------3-----|-------------------------|--------------------------|-------------------------|
|--1-----1-----1-----1-----|--0-----0-----0-----0----|--0-----0-----0-----0-----|--0-----0-----0-----0----|
1st time to infinity          Last Time
   E  E  E  E  S E.  E  E       E  E  E  E  S E.  Q
|--------0------------------||--------0------------------||
|-----1-----3----1---3------||-----1-----3----1---3~-----||
|--0--------2-----------0--*||--0------------------------||
|--0--2----------2------0--*||--0--2---------------------||
|--0-----0-----0-----3------||--0------------------------||
|-------------------(5)-----||---------------------------||

Duration Legend
---------------
W - whole
H - half
Q - quarter
E - 8th
S - 16th
. - note dotted
Login or Register to remove this ad.