Memory (Undertale) Guitar Tab

Submitted: Nov 08, 2015 by Alleeelex

5
Average: 5 (6 votes)
Download | Listen
Game: Undertale
Composer(s): Toby Fox
Style: Arrangement, Fingerstyle

AutoScroll: Slow | Medium | Fast
Memory
From Undertale
Composed by tobyfox
Tabbed by Alleeelex
13 October 2015

80 BPM
4/4 Time

    H.                E  E     E  E  E  E  S E.  Q       E  E  E  E  S E.  E  E     E  E  E  E  S E.  Q
e|-----------------------0--|--7--5--0--4----4---5----|--0--5--0--4----4---5--0--|--7--5--0--4----4---5----|
B|--------------------------|-------------------------|--------------------------|-------------------------|
G|--------------------------|-------------------------|--------------------------|-------------------------|
D|--------------------------|--0-----0-----0-----0----|--0-----0-----0-----0-----|--0-----0-----0-----0----|
A|--------------------------|-------------------------|--------------------------|-------------------------|
E|--------------------------|-------------------------|--------------------------|-------------------------|

   E  E  E  E  S E.  E  E     E  E  E  E  S E.  Q       E  E  E  E  S E.  E  E     E  E  E  E  S E.  Q
|--0--5--9--7----5---7--0--|--7--5--0--4----4---5----|--0--5--0--4----4---5--0--|--7--5--0--4----4---5----|
|--------------------------|-------------------------|--------------------------|-------------------------|
|--------------------------|-------------------------|--------------------------|-------------------------|
|--0-----0-----0-----0-----|-------------------------|--------------------------|-------------------------|
|--------------------------|--4-----4-----4-----4----|--4-----4-----4-----4-----|--4-----4-----4-----4----|
|--------------------------|-------------------------|--------------------------|-------------------------|

   E  E  E  E  S E.  E  E       E  E  E  E  S E.  Q       E  E  E  E  S E.  E  E     E  E  E  E  S E.  Q
|--0--5--9--7----5---7--0--||---7--5--0--4----4---5----|--0--5--0--4----4---5--0--|--7--5--0--4----4---5----|
|--------------------------||--------------------------|--------------------5-----|-------------------------|
|-----------------------4--||*-----------6-------------|--4--6-----4----6------4--|-----------6-------------|
|--4-----4-----4-----4-----||*--0-----0-----0-----0----|--0-----0-----0-----0-----|--0-----0-----0-----0----|
|--------------------------||--------------------------|--------------------------|-------------------------|
|--------------------------||--------------------------|--------------------------|-------------------------|

   E  E  E  E  S E.  E  E     E  E  E  E  S E.  Q       E  E  E  E  S E.  E  E     E  E  E  E  S E.  Q
|--0--5--9--7----5---7--0--|--7--5--0--4----4---5----|--0--5--0--4----4---5--0--|--7--5--0--4----4---5----|
|-----------7--------------|-------------------------|--------------------5-----|-------------------------|
|--4--6----------6------4--|-----------6-------------|--4--6-----4----6------4--|-----------6-------------|
|--0-----0-----0-----7-----|-------------------------|--------------------------|-------------------------|
|--------------------5-----|--4-----4-----4-----4----|--4-----4-----4-----4-----|--4-----4-----4-----4----|
|--------------------------|-------------------------|--------------------------|-------------------------|
1st time to infinity          Last Time
   E  E  E  E  S E.  E  E       E  E  E  E  S E.  Q
|--0--5--9--7----5---7--0---||--0--5--9--7----5---7~-----||
|-----------7---------------||---------------------------||
|--4--6----------6------4--*||--4--6---------------------||
|--4-----4-----4-----7-----*||--4------------------------||
|--------------------9------||---------------------------||
|---------------------------||---------------------------||

Duration Legend
---------------
W - whole
H - half
Q - quarter
E - 8th
S - 16th
. - note dotted
Login or Register to remove this ad.

4 comments on Memory

Really freakin' good

5

This is probably my favorite version of the song on here.

youtube

5

Can I use this to cover memory on my guitar on a video on youtube? I will leave a link to this page and give you credit. Please

Absolutely

Yep, feel free to use this. I actually wouldn't even mind if you didn't credit it, but I'd assume some people who see your video would want to learn to play it too.
This version is kind of difficult. I made another version that requires a capo, but is much much easier to perform if you'd like to try that one:
http://www.gametabs.net/undertale/memory-2

LOVE IT!!!

5

Thank you sooo much. love this arrangement :D