Megalovania (Undertale) Bass/Guitar Tab

Submitted: Apr 11, 2016 by Shrinx

4.25
Average: 4.3 (4 votes)
Download | Listen
Game: Undertale
Composer(s): Toby Fox
Style: 2 or more instruments, Transcription

AutoScroll: Slow | Medium | Fast
MEGALOVANIA
UNDERTALE (PC)
Composer: Toby Fox
Transcribed by Shrinx

Gtr I (Lead) - Standard Tuning (EADGBe)
Gtr II (Lead 2) - Standard Tuning (EADGBe)
Gtr III (Rhythm) - Standard Tuning (EADGBe)
Bass - 4 String - Standard Tuning (EADG)

Time Signature - 4/4
BPM - 240

Gtr I (Lead)

Bar 17
    E  E  E  E  E  Q     E   E  E  E  Q     E  E  E   E  E  E  E  E  Q     E   E  E  E  Q     E  E  E
e|-------10---------------|------------------------|-------10---------------|------------------------|
B|-------------10--------9|------------------------|-------------10--------9|------------------------|
G|------------------------|----12----10-------10-12|------------------------|----12----10-------10-12|
D|-12-12------------------|----------------12------|-10-10------------------|----------------12------|
A|------------------------|------------------------|------------------------|------------------------|
E|------------------------|------------------------|------------------------|------------------------|

    E  E  E  E  E  Q     E   E  E  E  Q     E  E  E   E  E  E  E  E  Q     E   E  E  E  Q     E  E  E
e|-------10---------------|------------------------|-------10---------------|------------------------|
B|-------------10--------9|------------------------|-------------10--------9|------------------------|
G|------------------------|----12----10-------10-12|------------------------|----12----10-------10-12|
D|--9--9------------------|----------------12------|--8--8------------------|----------------12------|
A|------------------------|------------------------|------------------------|------------------------|
E|------------------------|------------------------|------------------------|------------------------|

    E  E  E  E  E  Q     E   E  E  E  Q     E  E  E   E  E  E  E  E  Q     E   E  E  E  Q     E  E  E
e|-------10---------------|------------------------|-------10---------------|------------------------|
B|-------------10--------9|------------------------|-------------10--------9|------------------------|
G|------------------------|----12----10-------10-12|------------------------|----12----10-------10-12|
D|-12-12------------------|----------------12------|-10-10------------------|----------------12------|
A|------------------------|------------------------|------------------------|------------------------|
E|------------------------|------------------------|------------------------|------------------------|

    E  E  E  E  E  Q     E   E  E  E  Q     E  E  E   E  E  E  E  E  Q     E   E  E  E  Q     E  E  E
e|-------10---------------|------------------------|-------10---------------|------------------------|
B|-------------10--------9|------------------------|-------------10--------9|------------------------|
G|------------------------|----12----10-------10-12|------------------------|----12----10-------10-12|
D|--9--9------------------|----------------12------|--8--8------------------|----------------12------|
A|------------------------|------------------------|------------------------|------------------------|
E|------------------------|------------------------|------------------------|------------------------|

    Q     E  E  E  E  E  E   E  E  E  H           E   Q     E  E  E  E  E  E   S S S S  E  E  E  E  Q   
e|------------------------|------------------------|------------------------|---------------------------|
B|--6-----6--6-----6---5/6|--T---------------------|--6-----6--6-----8-----9|--T-8-6-8--6-----6--8------|
G|------------------------|-----7-----7-----------T|------------------------|--------------7------------|
D|------------------------|------------------------|------------------------|---------------------------|
A|------------------------|------------------------|------------------------|---------------------------|
E|------------------------|------------------------|------------------------|---------------------------|

    Q     E  E  E  E  E  E   E  E  E  E  E  Q.        E  E  E  E  E  E  E  E   W
e|------------------------|-----------8------------|-10----10----10----10--8|--T---------------------|
B|--6-----6--6-----8-----9|----10----------10------|----------------10------|------------------------|
G|------------------------|------------------------|------------------------|------------------------|
D|------------------------|------------------------|------------------------|------------------------|
A|------------------------|------------------------|------------------------|------------------------|
E|------------------------|------------------------|------------------------|------------------------|

    Q     E  E  E  E  E    E   E  E  E  H           E   Q     E  E  E  E  E  E   E  E  E  E  E  E  Q  
e|--------------------------|------------------------|------------------------|----------10------------|
B|-10----10-10----10----9/10|--T--8-----8-----------T|-10----10-10----10-----8|----10----------10--8---|
G|--------------------------|------------------------|------------------------|------------------------|
D|--------------------------|------------------------|------------------------|------------------------|
A|--------------------------|------------------------|------------------------|------------------------|
E|--------------------------|------------------------|------------------------|------------------------|

    Q     Q     Q     Q      Q     Q     Q     Q      Q     E  E  E  E  E  E   W
e|-10---------------------|--8---------------------|-----------------------8|--T---------------------|
B|-------10-----8---------|--------8---------------|------------------------|------------------------|
G|-------------------10---|-------------10-----9---|--------7--9----10------|------------------------|
D|------------------------|------------------------|--8---------------------|------------------------|
A|------------------------|------------------------|------------------------|------------------------|
E|------------------------|------------------------|------------------------|------------------------|

    E  E  E  E  E  E  E  E   E  E  E  E  E  E  E  E   S S S S Q     H            H           E  Q     E
e|------------------------|------------------------|--------------------------|------------------------|
B|------------------------|--6-----6--8--9--8--6---|--9-8-6---6-----8---------|--T-----------T--9----10|
G|------------------------|-----7-----------------7|--------7-----------------|------------------------|
D|------------------------|------------------------|--------------------------|------------------------|
A|------------------------|------------------------|--------------------------|------------------------|
E|------------------------|------------------------|--------------------------|------------------------|

    E  E  E  E  E  E  E  E   Q     Q     Q     Q      Q     E  E  E  E  E   E   W
e|--8---------------------|--------------------8---|--9----------------------|------------------------|
B|-------10--9--8---------|--------8----10---------|--------9-----9--8--6--8\|--T---------------------|
G|----------------10--7--9|-10---------------------|-------------------------|------------------------|
D|------------------------|------------------------|-------------------------|------------------------|
A|------------------------|------------------------|-------------------------|------------------------|
E|------------------------|------------------------|-------------------------|------------------------|

    Q     Q     Q     Q      H           H            H           H            H           H         
e|------------------------|------------------------|------------------------|------------------------|
B|------------------------|------------------------|------------------------|--8---------------------|
G|-------------------10---|--9-----------7---------|--9----------10---------|--------------9---------|
D|--------------7---------|------------------------|------------------------|------------------------|
A|--8----10---------------|------------------------|------------------------|------------------------|
E|------------------------|------------------------|------------------------|------------------------|

    W                        E  E  E  E  E  E  E  E   W                        W
e|------------------------|------------------------|------------------------|------------------------|
B|-10---------------------|-10--9--8--7------------|------------------------|------------------------|
G|------------------------|-------------10--9--8--7|------------------------|------------------------|
D|------------------------|------------------------|11/---------------------|-13---------------------|
A|------------------------|------------------------|------------------------|------------------------|
E|------------------------|------------------------|------------------------|------------------------|

    E  E  E  E  E  E  E  E   E  E  E  E  E  E  E  E   S S S S Q     H            H           E  Q     E
e|------------------------|------------------------|--------------------------|------------------------|
B|------------------------|--6-----6--8--9--8--6---|--9-8-6---6-----8---------|--T-----------T--9----10|
G|------------------------|-----7-----------------7|--------7-----------------|------------------------|
D|------------------------|------------------------|--------------------------|------------------------|
A|------------------------|------------------------|--------------------------|------------------------|
E|------------------------|------------------------|--------------------------|------------------------|

    E  E  E  E  E  E  E  E   Q     Q     Q     Q      Q     E  E  E  E  E   E   W
e|--8---------------------|--------------------8---|--9----------------------|------------------------|
B|-------10--9--8---------|--------8----10---------|--------9-----9--8--6--8\|--T---------------------|
G|----------------10--7--9|-10---------------------|-------------------------|------------------------|
D|------------------------|------------------------|-------------------------|------------------------|
A|------------------------|------------------------|-------------------------|------------------------|
E|------------------------|------------------------|-------------------------|------------------------|

    Q     Q     Q     Q      H           H            H           H            H           H         
e|------------------------|------------------------|------------------------|------------------------|
B|------------------------|------------------------|------------------------|--8---------------------|
G|-------------------10---|--9-----------7---------|--9----------10---------|--------------9---------|
D|--------------7---------|------------------------|------------------------|------------------------|
A|--8----10---------------|------------------------|------------------------|------------------------|
E|------------------------|------------------------|------------------------|------------------------|

    W                        E  E  E  E  E  E  E  E   W                        W
e|------------------------|------------------------|------------------------|------------------------|
B|-10---------------------|-10--9--8--7------------|------------------------|------------------------|
G|------------------------|-------------10--9--8--7|------------------------|------------------------|
D|------------------------|------------------------|11/---------------------|-13---------------------|
A|------------------------|------------------------|------------------------|------------------------|
E|------------------------|------------------------|------------------------|------------------------|


e|------------------------|------------------------|------------------------|------------------------|
B|------------------------|------------------------|------------------------|------------------------|
G|------------------------|------------------------|------------------------|------------------------|
D|------------------------|------------------------|------------------------|------------------------|
A|------------------------|------------------------|------------------------|------------------------|
E|------------------------|------------------------|------------------------|------------------------|


e|------------------------|------------------------|------------------------|------------------------|
B|------------------------|------------------------|------------------------|------------------------|
G|------------------------|------------------------|------------------------|------------------------|
D|------------------------|------------------------|------------------------|------------------------|
A|------------------------|------------------------|------------------------|------------------------|
E|------------------------|------------------------|------------------------|------------------------|


e|------------------------|------------------------|------------------------|------------------------|
B|------------------------|------------------------|------------------------|------------------------|
G|------------------------|------------------------|------------------------|------------------------|
D|------------------------|------------------------|------------------------|------------------------|
A|------------------------|------------------------|------------------------|------------------------|
E|------------------------|------------------------|------------------------|------------------------|


e|------------------------|------------------------|------------------------|------------------------|
B|------------------------|------------------------|------------------------|------------------------|
G|------------------------|------------------------|------------------------|------------------------|
D|------------------------|------------------------|------------------------|------------------------|
A|------------------------|------------------------|------------------------|------------------------|
E|------------------------|------------------------|------------------------|------------------------|

    E  E  E  E  E  Q     E   E  E  E  Q     E  E  E   E  E  E  E  E  Q     E   E  E  E  Q     E  E  E
e|------------------------|------------------------|------------------------|------------------------|
B|--------3---------------|------------------------|--------3---------------|------------------------|
G|--------------2--------1|-----0-----------------0|--------------2--------1|-----0-----------------0|
D|--0--0------------------|-----------3-----0--3---|------------------------|-----------3-----0--3---|
A|------------------------|------------------------|--3--3------------------|------------------------|
E|------------------------|------------------------|------------------------|------------------------|

    E  E  E  E  E  Q     E   E  E  E  Q     E  E  E   E  E  E  E  E  Q     E   E  E  E  Q     E  E  E
e|------------------------|------------------------|------------------------|------------------------|
B|--------3---------------|------------------------|--------3---------------|------------------------|
G|--------------2--------1|-----0-----------------0|--------------2--------1|-----0-----------------0|
D|------------------------|-----------3-----0--3---|------------------------|-----------3-----0--3---|
A|--2--2------------------|------------------------|--2--2------------------|------------------------|
E|------------------------|------------------------|------------------------|------------------------|

    E  E  E  E  E  Q     E   E  E  E  Q     E  E  E   E  E  E  E  E  Q     E   E  E  E  Q     E  E  E
e|------------------------|------------------------|------------------------|------------------------|
B|--------3---------------|------------------------|--------3---------------|------------------------|
G|--------------2--------1|-----0-----------------0|--------------2--------1|-----0-----------------0|
D|--0--0------------------|-----------3-----0--3---|------------------------|-----------3-----0--3---|
A|------------------------|------------------------|--3--3------------------|------------------------|
E|------------------------|------------------------|------------------------|------------------------|

    E  E  E  E  E  Q     E   E  E  E  Q     E  E  E   E  E  E  E  E  Q     E   E  E  E  Q     E  E  E
e|------------------------|------------------------|------------------------|------------------------|
B|--------3---------------|------------------------|--------3---------------|------------------------|
G|--------------2--------1|-----0-----------------0|--------------2--------1|-----0-----------------0|
D|--0--0------------------|-----------3-----0--3---|--0--0------------------|-----------3-----0--3---|
A|------------------------|------------------------|------------------------|------------------------|
E|------------------------|------------------------|------------------------|------------------------|

Rest for 44 bars (until Bar 156) and loop from beginning


Gtr II (Lead 2)

    E  E  E  E  E  Q     E   E  E  E  Q     E  E  E   E  E  E  E  E  Q     E   E  E  E  Q     E  E  E
e|------------------------|------------------------|------------------------|------------------------|
B|--------3---------------|------------------------|--------3---------------|------------------------|
G|--------------2--------1|-----0-----------------0|--------------2--------1|-----0-----------------0|
D|--0--0------------------|-----------3-----0--3---|------------------------|-----------3-----0--3---|
A|------------------------|------------------------|--3--3------------------|------------------------|
E|------------------------|------------------------|------------------------|------------------------|

    E  E  E  E  E  Q     E   E  E  E  Q     E  E  E   E  E  E  E  E  Q     E   E  E  E  Q     E  E  E
e|------------------------|------------------------|------------------------|------------------------|
B|--------3---------------|------------------------|--------3---------------|------------------------|
G|--------------2--------1|-----0-----------------0|--------------2--------1|-----0-----------------0|
D|------------------------|-----------3-----0--3---|------------------------|-----------3-----0--3---|
A|--2--2------------------|------------------------|--1--1------------------|------------------------|
E|------------------------|------------------------|------------------------|------------------------|

Repeat Bars 1 - 8 four times (to Bar 32)


e|------------------------|------------------------|------------------------|------------------------|
B|------------------------|------------------------|------------------------|------------------------|
G|------------------------|------------------------|------------------------|------------------------|
D|------------------------|------------------------|------------------------|------------------------|
A|------------------------|------------------------|------------------------|------------------------|
E|------------------------|------------------------|------------------------|------------------------|


e|------------------------|------------------------|------------------------|------------------------|
B|------------------------|------------------------|------------------------|------------------------|
G|------------------------|------------------------|------------------------|------------------------|
D|------------------------|------------------------|------------------------|------------------------|
A|------------------------|------------------------|------------------------|------------------------|
E|------------------------|------------------------|------------------------|------------------------|

    Q     E  E  E  E  E   E   E  E  E  H           E   Q     E  E  E  E  E  E   E  E  E  E  E  E  Q
e|-------------------------|------------------------|------------------------|------------------------|
B|--6-----6--6-----6----5/6|--T--3-----3-----------T|--6-----6--6-----6-----3|-----6-----5------------|
G|-------------------------|------------------------|------------------------|-----------------7--5---|
D|-------------------------|------------------------|------------------------|------------------------|
A|-------------------------|------------------------|------------------------|------------------------|
E|-------------------------|------------------------|------------------------|------------------------|

    E  E  E  E  E  E  E  E   E  E  E  E  E  E  E  E   Q.       E  E  E  E  E   W
e|--5---------------------|------------------------|------------------------|------------------------|
B|-----6--3--5--6--3-----3|-----3-----3------------|-----------------6-----8|--T---------------------|
G|--------------------4---|--------4-----4-----4---|-----------5------------|------------------------|
D|------------------------|-----------------5-----5|------------------------|------------------------|
A|------------------------|------------------------|------------------------|------------------------|
E|------------------------|------------------------|------------------------|------------------------|


e|------------------------|------------------------|------------------------|------------------------|
B|------------------------|------------------------|------------------------|------------------------|
G|------------------------|------------------------|------------------------|------------------------|
D|------------------------|------------------------|------------------------|------------------------|
A|------------------------|------------------------|------------------------|------------------------|
E|------------------------|------------------------|------------------------|------------------------|


e|------------------------|------------------------|------------------------|------------------------|
B|------------------------|------------------------|------------------------|------------------------|
G|------------------------|------------------------|------------------------|------------------------|
D|------------------------|------------------------|------------------------|------------------------|
A|------------------------|------------------------|------------------------|------------------------|
E|------------------------|------------------------|------------------------|------------------------|

    Q     Q     Q     Q      H           H            H           H            H           H
e|------------------------|------------------------|------------------------|------------------------|
B|------------------------|------------------------|------------------------|------------------------|
G|--------------------7---|--5---------------------|------------------------|--5---------------------|
D|--------------3---------|--------------7---------|--5-----------7---------|--------------7---------|
A|--5-----7---------------|------------------------|------------------------|------------------------|
E|------------------------|------------------------|------------------------|------------------------|

    W                                                 W                        W
e|------------------------|------------------------|------------------------|------------------------|
B|------------------------|------------------------|------------------------|------------------------|
G|--7---------------------|------------------------|------------------------|------------------------|
D|------------------------|------------------------|-6/---------------------|--8---------------------|
A|------------------------|------------------------|------------------------|------------------------|
E|------------------------|------------------------|------------------------|------------------------|

e|------------------------|------------------------|------------------------|------------------------|
B|------------------------|------------------------|------------------------|------------------------|
G|------------------------|------------------------|------------------------|------------------------|
D|------------------------|------------------------|------------------------|------------------------|
A|------------------------|------------------------|------------------------|------------------------|
E|------------------------|------------------------|------------------------|------------------------|


e|------------------------|------------------------|------------------------|------------------------|
B|------------------------|------------------------|------------------------|------------------------|
G|------------------------|------------------------|------------------------|------------------------|
D|------------------------|------------------------|------------------------|------------------------|
A|------------------------|------------------------|------------------------|------------------------|
E|------------------------|------------------------|------------------------|------------------------|

    Q     Q     Q     Q      H           H            H           H            H           H
e|------------------------|------------------------|------------------------|------------------------|
B|------------------------|------------------------|------------------------|------------------------|
G|--------------------7---|--5---------------------|------------------------|--5---------------------|
D|--------------3---------|--------------7---------|--5-----------7---------|--------------7---------|
A|--5-----7---------------|------------------------|------------------------|------------------------|
E|------------------------|------------------------|------------------------|------------------------|

    W                                                 W                        W
e|------------------------|------------------------|------------------------|------------------------|
B|------------------------|------------------------|------------------------|------------------------|
G|--7---------------------|------------------------|------------------------|------------------------|
D|------------------------|------------------------|-6/---------------------|--8---------------------|
A|------------------------|------------------------|------------------------|------------------------|
E|------------------------|------------------------|------------------------|------------------------|

    W                        H           H            H                        H
e|------------------------|------------------------|------------------------|------------------------|
B|------------------------|------------------------|------------------------|------------------------|
G|------------------------|------------------------|------------------------|------------------------|
D|------------------------|------------------------|------------------------|------------------------|
A|------------------------|--------------8---------|--7---------------------|--5---------------------|
E|--6---------------------|--T---------------------|------------------------|------------------------|

    W                        W                        W                        W
e|------------------------|------------------------|------------------------|------------------------|
B|------------------------|------------------------|------------------------|------------------------|
G|------------------------|------------------------|------------------------|------------------------|
D|------------------------|------------------------|------------------------|------------------------|
A|--8---------------------|--T---------------------|--T---------------------|--T---------------------|
E|------------------------|------------------------|------------------------|------------------------|

    W                        H           H            H                        H
e|------------------------|------------------------|------------------------|------------------------|
B|------------------------|------------------------|------------------------|------------------------|
G|------------------------|------------------------|------------------------|------------------------|
D|------------------------|------------------------|------------------------|------------------------|
A|------------------------|--------------8---------|--7---------------------|--5---------------------|
E|--6---------------------|--T---------------------|------------------------|------------------------|

    W                        W                        W                        W
e|------------------------|------------------------|------------------------|------------------------|
B|------------------------|------------------------|------------------------|------------------------|
G|------------------------|------------------------|------------------------|------------------------|
D|------------------------|------------------------|------------------------|------------------------|
A|--5\--------------------|--T---------------------|--T---------------------|--T---------------------|
E|------------------------|------------------------|------------------------|------------------------|

    W                        H           H            H                        H
e|------------------------|------------------------|------------------------|------------------------|
B|------------------------|------------------------|------------------------|------------------------|
G|------------------------|------------------------|------------------------|------------------------|
D|------------------------|------------------------|------------------------|------------------------|
A|------------------------|--------------8---------|--7---------------------|--5---------------------|
E|--6---------------------|--T---------------------|------------------------|------------------------|

    W                        W                        W                        W
e|------------------------|------------------------|------------------------|------------------------|
B|------------------------|------------------------|------------------------|------------------------|
G|------------------------|------------------------|------------------------|------------------------|
D|------------------------|------------------------|------------------------|------------------------|
A|--8---------------------|--T---------------------|--T---------------------|--T---------------------|
E|------------------------|------------------------|------------------------|------------------------|

    W                        H           H            H                        H
e|------------------------|------------------------|------------------------|------------------------|
B|------------------------|------------------------|------------------------|------------------------|
G|------------------------|------------------------|------------------------|------------------------|
D|------------------------|------------------------|------------------------|------------------------|
A|------------------------|--------------8---------|--7---------------------|--5---------------------|
E|--6---------------------|--T---------------------|------------------------|------------------------|

    Q     E  E  E  Q     E   E  E  E  Q     E  E  E   Q     E  E  E  Q     E   E  E  E  Q     E  E  E
e|------------------------|------------------------|------------------------|------------------------|
B|------------------------|------------------------|------------------------|------------------------|
G|-------10-----9---------|-----9-----7------------|-------10-----9---------|-----9-----7------------|
D|----------------------10|--------------------7-10|----------------------10|--------------------7-10|
A|------------------------|----------------10------|------------------------|----------------10------|
E|------------------------|------------------------|------------------------|------------------------|

Rest for 28 bars (until Bar 140)

    E  E  E  E  E  Q     E   E  E  E  Q     E  E  E   E  E  E  E  E  Q     E   E  E  E  Q     E  E  E
e|------------------------|------------------------|------------------------|------------------------|
B|--------3---------------|------------------------|--------3---------------|------------------------|
G|--------------2--------1|-----0-----------------0|--------------2--------1|-----0-----------------0|
D|--0--0------------------|-----------3-----0--3---|--0--0------------------|-----------3-----0--3---|
A|------------------------|------------------------|------------------------|------------------------|
E|------------------------|------------------------|------------------------|------------------------|

    E  E  E  E  E  Q     E   E  E  E  Q     E  E  E   E  E  E  E  E  Q     E   E  E  E  Q     E  E  E
e|------------------------|------------------------|------------------------|------------------------|
B|--------3---------------|------------------------|--------3---------------|------------------------|
G|--------------2--------1|-----0-----------------0|--------------2--------1|-----0-----------------0|
D|------------------------|-----------3-----0--3---|------------------------|-----------3-----0--3---|
A|--1--1------------------|------------------------|--3--3------------------|------------------------|
E|------------------------|------------------------|------------------------|------------------------|

    E  E  E  E  E  Q     E   E  E  E  Q     E  E  E   E  E  E  E  E  Q     E   E  E  E  Q     E  E  E
e|------------------------|------------------------|------------------------|------------------------|
B|--------3---------------|------------------------|--------3---------------|------------------------|
G|--------------2--------1|-----0-----------------0|--------------2--------1|-----0-----------------0|
D|--0--0------------------|-----------3-----0--3---|--0--0------------------|-----------3-----0--3---|
A|------------------------|------------------------|------------------------|------------------------|
E|------------------------|------------------------|------------------------|------------------------|

    E  E  E  E  E  Q     E   E  E  E  Q     E  E  E   E  E  E  E  E  Q     E   E  E  E  Q     E  E  E
e|------------------------|------------------------|------------------------|------------------------|
B|--------3---------------|------------------------|--------3---------------|------------------------|
G|--------------2--------1|-----0-----------------0|--------------2--------1|-----0-----------------0|
D|------------------------|-----------3-----0--3---|------------------------|-----------3-----0--3---|
A|--1--1------------------|------------------------|--3--3------------------|------------------------|
E|------------------------|------------------------|------------------------|------------------------|

Loop from beginning


Gtr III (Rhythm)

Bar 9
    Q     Q     E  Q     E   E  Q     E  E  E  Q      Q     Q     E  Q     E   E  Q     E  E  E  Q   
e|------------------------|------------------------|------------------------|------------------------|
B|------------------------|------------------------|------------------------|------------------------|
G|------------------------|------------------------|------------------------|------------------------|
D|------------------------|------------------------|------------------------|------------------------|
A|--5-----5-----5--5-----5|--T--5-----5--5--5--5---|--3-----3-----3--3-----3|--T--3-----3--3--3--3---|
E|------------------------|------------------------|------------------------|------------------------|

    Q     Q     E  Q     E   E  Q     E  E  E  Q      Q     Q     E  Q     E   E  Q     E  E  E  Q   
e|------------------------|------------------------|------------------------|------------------------|
B|------------------------|------------------------|------------------------|------------------------|
G|------------------------|------------------------|------------------------|------------------------|
D|------------------------|------------------------|------------------------|------------------------|
A|--2-----2-----2--2-----2|--T--2-----2--2--2--2---|--1-----1-----1--1-----3|--T--3-----3--3--3--3---|
E|------------------------|------------------------|------------------------|------------------------|

    Q     Q     E  Q     E   E  Q     E  E  E  Q      Q     Q     E  Q     E   E  Q     E  E  E  Q   
               PM                    PM PM PM                    PM                    PM PM PM
e|------------------------|------------------------|------------------------|------------------------|
B|------------------------|------------------------|------------------------|------------------------|
G|*-7-----7-----7--7-----7|--T--7-----7--7--7--7---|--5-----5-----5--5-----5|--T--5-----5--5--5--5---|
D|*-7-----7-----7--7-----7|--T--7-----7--7--7--7---|--5-----5-----5--5-----5|--T--5-----5--5--5--5---|
A|--5-----5-----5--5-----5|--T--5-----5--5--5--5---|--3-----3-----3--3-----3|--T--3-----3--3--3--3---|
E|------------------------|------------------------|------------------------|------------------------|

    Q     Q     E  Q     E   E  Q     E  E  E  Q      Q     Q     E  Q     E   E  Q     E  E  E  Q  
               PM                    PM PM PM                    PM                    PM PM PM 
e|------------------------|------------------------|------------------------|------------------------|
B|------------------------|------------------------|------------------------|------------------------|
G|--4-----4-----4--4-----4|--T--4-----4--4--4--4---|--3-----3-----3--3-----5|--T--5-----5--5--5--5--*| X4
D|--4-----4-----4--4-----4|--T--4-----4--4--4--4---|--3-----3-----3--3-----5|--T--5-----5--5--5--5--*|
A|--2-----2-----2--2-----2|--T--2-----2--2--2--2---|--1-----1-----1--1-----3|--T--3-----3--3--3--3---|
E|------------------------|------------------------|------------------------|------------------------|

    Q     Q     E  Q     E   E  Q     E  E  E  Q      Q     Q     E  Q     E   E  Q     E  E  E  Q   
               PM                    PM PM PM                    PM                    PM PM PM
e|------------------------|------------------------|------------------------|------------------------|
B|------------------------|------------------------|------------------------|------------------------|
G|*-3-----3-----3--3-----3|--T--3-----3--3--3--3---|--5-----5-----5--5-----5|--T--5-----5--5--5--5---|
D|*-3-----3-----3--3-----3|--T--3-----3--3--3--3---|--5-----5-----5--5-----5|--T--5-----5--5--5--5---|
A|--1-----1-----1--1-----1|--T--1-----1--1--1--1---|--3-----3-----3--3-----3|--T--3-----3--3--3--3---|
E|------------------------|------------------------|------------------------|------------------------|

    Q     Q     E  Q     E   E  Q     E  E  E  Q      Q     Q     E  Q     E   E  Q     E  E  E  Q  
               PM                    PM PM PM                    PM                    PM PM PM 
e|------------------------|------------------------|------------------------|------------------------|
B|------------------------|------------------------|------------------------|------------------------|
G|--7-----7-----7--7-----7|--T--7-----7--7--7--7---|--6-----6-----6--6-----8|--T--8-----8--8--8--8--*| X4
D|--7-----7-----7--7-----7|--T--7-----7--7--7--7---|--6-----6-----6--6-----8|--T--8-----8--8--8--8--*|
A|--5-----5-----5--5-----5|--T--5-----5--5--5--5---|--4-----4-----4--4-----6|--T--6-----6--6--6--6---|
E|------------------------|------------------------|------------------------|------------------------|

    Q     Q     E  Q     E   E  Q     E  E  E  Q      Q     Q     E  Q     E   E  Q     E  E  E  Q 
e|------------------------|------------------------|------------------------|------------------------|
B|------------------------|------------------------|------------------------|------------------------|
G|*-----------------------|------------------------|------------------------|------------------------|
D|*-----------------------|------------------------|------------------------|------------------------|
A|--1-----1-----1--1-----1|--T--1-----1--1--1--1---|--3-----3-----3--3-----3|--T--3-----3--3--3--3---|
E|------------------------|------------------------|------------------------|------------------------|

    Q     Q     E  Q     E   E  Q     E  E  E  Q      Q     Q     E  Q     E   E  Q     E  E  E  Q 
e|------------------------|------------------------|------------------------|------------------------|
B|------------------------|------------------------|------------------------|------------------------|
G|------------------------|------------------------|------------------------|------------------------|
D|------------------------|------------------------|------------------------|------------------------|
A|--2-----2-----2--2-----2|--T--2-----2--2--2--2---|--2-----2-----2--2-----2|--T--2-----2--2--2--2---|
E|------------------------|------------------------|------------------------|------------------------|

    Q     Q     E  Q     E   E  Q     E  E  E  Q      Q     Q     E  Q     E   E  Q     E  E  E  Q 
e|------------------------|------------------------|------------------------|------------------------|
B|------------------------|------------------------|------------------------|------------------------|
G|------------------------|------------------------|------------------------|------------------------|
D|------------------------|------------------------|------------------------|------------------------|
A|--1-----1-----1--1-----1|--T--1-----1--1--1--1---|--3-----3-----3--3-----3|--T--3-----3--3--3--3---|
E|------------------------|------------------------|------------------------|------------------------|

    Q     Q     E  Q     E   E  Q     E  E  E  Q      Q     Q     E  Q     E   E  Q     E  E  E  Q 
e|------------------------|------------------------|------------------------|------------------------|
B|------------------------|------------------------|------------------------|------------------------|
G|------------------------|------------------------|------------------------|-----------------------*| X2
D|------------------------|------------------------|------------------------|-----------------------*|
A|--5-----5-----5--5-----5|--T--5-----5--5--5--5---|--5-----5-----5--5-----5|--T--5-----5--5--5--5---|
E|------------------------|------------------------|------------------------|------------------------|

    Q     Q     E  Q     E   E  Q     E  E  E  Q      Q     Q     E  Q     E   E  Q     E  E  E  Q  
               PM                    PM PM PM                    PM                    PM PM PM 
e|------------------------|------------------------|------------------------|------------------------|
B|------------------------|------------------------|------------------------|------------------------|
G|*-3-----3-----3--3-----3|--T--3-----3--3--3--3---|--5-----5-----5--5-----5|--T--5-----5--5--5--5---|
D|*-3-----3-----3--3-----3|--T--3-----3--3--3--3---|--5-----5-----5--5-----5|--T--5-----5--5--5--5---|
A|--1-----1-----1--1-----1|--T--1-----1--1--1--1---|--3-----3-----3--3-----3|--T--3-----3--3--3--3---|
E|------------------------|------------------------|------------------------|------------------------|

    Q     Q     E  Q     E   E  Q     E  E  E  Q      Q     Q     E  Q     E   E  Q     E  E  E  Q  
               PM                    PM PM PM                    PM                    PM PM PM 
e|------------------------|------------------------|------------------------|------------------------|
B|------------------------|------------------------|------------------------|------------------------|
G|--7-----7-----7--7-----6|--T--6-----6--6--6--6---|--5-----5-----5--5-----4|--T--4-----4--4--4--4---|
D|--7-----7-----7--7-----6|--T--6-----6--6--6--6---|--5-----5-----5--5-----4|--T--4-----4--4--4--4---|
A|--5-----5-----5--5-----4|--T--4-----4--4--4--4---|--3-----3-----3--3-----2|--T--2-----2--2--2--2---|
E|------------------------|------------------------|------------------------|------------------------|

    Q     Q     E  Q     E   E  Q     E  E  E  Q      Q     Q     E  Q     E   E  Q     E  E  E  Q  
               PM                    PM PM PM                    PM                    PM PM PM 
e|------------------------|------------------------|------------------------|------------------------|
B|------------------------|------------------------|------------------------|------------------------|
G|--3-----3-----3--3-----3|--T--3-----3--3--3--3---|--5-----5-----5--5-----5|--T--5-----5--5--5--5---|
D|--3-----3-----3--3-----3|--T--3-----3--3--3--3---|--5-----5-----5--5-----5|--T--5-----5--5--5--5---|
A|--1-----1-----1--1-----1|--T--1-----1--1--1--1---|--3-----3-----3--3-----3|--T--3-----3--3--3--3---|
E|------------------------|------------------------|------------------------|------------------------|

    Q     Q     E  Q     E   E  Q     E  E  E  Q      Q     Q     E  Q     E   E  Q     E  E  E  Q  
               PM                    PM PM PM                    PM                    PM PM PM 
e|------------------------|------------------------|------------------------|------------------------|
B|------------------------|------------------------|------------------------|------------------------|
G|--7-----7-----7--7-----7|--T--7-----7--7--7--7---|--7-----7-----7--7-----7|--T--7-----7--7--7--7--*| X2
D|--7-----7-----7--7-----7|--T--7-----7--7--7--7---|--7-----7-----7--7-----7|--T--7-----7--7--7--7--*|
A|--5-----5-----5--5-----5|--T--5-----5--5--5--5---|--5-----5-----5--5-----5|--T--5-----5--5--5--5---|
E|------------------------|------------------------|------------------------|------------------------|

Rest for 12 bars (until Bar 156) and loop from beginning


Bass

Bar 17
    Q     Q     E  Q     E   E  Q     E  E  E  Q      Q     Q     E  Q     E   E  Q     E  E  E  Q  
G|------------------------|------------------------|------------------------|------------------------|
D|*-----------------------|------------------------|------------------------|------------------------|
A|*-5-----5-----5--5-----5|--T--5-----5--5--5--5---|--3-----3-----3--3-----3|--3--3-----3--3--3--3---|
E|------------------------|------------------------|------------------------|------------------------|

    Q     Q     E  Q     E   E  Q     E  E  E  Q      Q     Q     E  Q     E   E  Q     E  E  E  Q  
G|------------------------|------------------------|------------------------|------------------------|
D|------------------------|------------------------|------------------------|-----------------------*| X4
A|--2-----2-----2--2-----2|--2--2-----2--2--2--2---|--1-----1-----1--1-----1|--1--1-----1--1--1--1--*|
E|------------------------|------------------------|------------------------|------------------------|

    Q     Q     E  Q     E   E  Q     E  E  E  Q      Q     Q     E  Q     E   E  Q     E  E  E  Q  
G|------------------------|------------------------|------------------------|------------------------|
D|*-----------------------|------------------------|------------------------|------------------------|
A|*-1-----1-----1--1-----1|--T--1-----1--1--1--1---|--3-----3-----3--3-----3|--T--3-----3--3--3--3---|
E|------------------------|------------------------|------------------------|------------------------|

    Q     Q     E  Q     E   E  Q     E  E  E  Q      Q     Q     E  Q     E   E  Q     E  E  E  Q  
G|------------------------|------------------------|------------------------|------------------------|
D|------------------------|------------------------|------------------------|-----------------------*| X4
A|--5-----5-----5--5-----5|--T--5-----5--5--5--5---|--4-----4-----4--4-----6|--T--6-----6--6--6--6--*|
E|------------------------|------------------------|------------------------|------------------------|

    Q     Q     E  Q     E   E  Q     E  E  E  Q      Q     Q     E  Q     E   E  Q     E  E  E  Q  
G|------------------------|------------------------|------------------------|------------------------|
D|*-----------------------|------------------------|------------------------|------------------------|
A|*-1-----1-----1--1-----1|--T--1-----1--1--1--1---|--3-----3-----3--3-----3|--T--3-----3--3--3--3---|
E|------------------------|------------------------|------------------------|------------------------|

    Q     Q     E  Q     E   E  Q     E  E  E  Q      Q     Q     E  Q     E   E  Q     E  E  E  Q  
G|------------------------|------------------------|------------------------|------------------------|
D|------------------------|------------------------|------------------------|------------------------|
A|--2-----2-----2--2-----2|--T--2-----2--2--2--2---|--2-----2-----2--2-----2|--T--2-----2--2--2--2---|
E|------------------------|------------------------|------------------------|------------------------|

    Q     Q     E  Q     E   E  Q     E  E  E  Q      Q     Q     E  Q     E   E  Q     E  E  E  Q  
G|------------------------|------------------------|------------------------|------------------------|
D|------------------------|------------------------|------------------------|------------------------|
A|--1-----1-----1--1-----1|--T--1-----1--1--1--1---|--3-----3-----3--3-----3|--T--3-----3--3--3--3---|
E|------------------------|------------------------|------------------------|------------------------|

    Q     Q     E  Q     E   E  Q     E  E  E  Q      Q     Q     E  Q     E   E  Q     E  E  E  Q  
G|------------------------|------------------------|------------------------|------------------------|
D|------------------------|------------------------|------------------------|-----------------------*| X2
A|--5-----5-----5--5-----5|--T--5-----5--5--5--5---|--5-----5-----5--5-----5|--T--5-----5--5--5--5--*|
E|------------------------|------------------------|------------------------|------------------------|

    Q     Q     E  Q     E   E  Q     E  E  E  Q      Q     Q     E  Q     E   E  Q     E  E  E  Q  
G|------------------------|------------------------|------------------------|------------------------|
D|*-----------------------|------------------------|------------------------|------------------------|
A|*-1-----1-----1--1-----1|--T--1-----1--1--1--1---|--3-----3-----3--3-----3|--T--3-----3--3--3--3---|
E|------------------------|------------------------|------------------------|------------------------|

    Q     Q     E  Q     E   E  Q     E  E  E  Q      Q     Q     E  Q     E   E  Q     E  E  E  Q  
G|------------------------|------------------------|------------------------|------------------------|
D|------------------------|------------------------|------------------------|------------------------|
A|--5-----5-----5--5-----4|--T--4-----4--4--4--4---|--3-----3-----3--3-----2|--T--2-----2--2--2--2---|
E|------------------------|------------------------|------------------------|------------------------|

    Q     Q     E  Q     E   E  Q     E  E  E  Q      Q     Q     E  Q     E   E  Q     E  E  E  Q  
G|------------------------|------------------------|------------------------|------------------------|
D|------------------------|------------------------|------------------------|------------------------|
A|--1-----1-----1--1-----1|--T--1-----1--1--1--1---|--3-----3-----3--3-----3|--T--3-----3--3--3--3---|
E|------------------------|------------------------|------------------------|------------------------|

    Q     Q     E  Q     E   E  Q     E  E  E  Q      Q     Q     E  Q     E   E  Q     E  E  E  Q  
G|------------------------|------------------------|------------------------|------------------------|
D|------------------------|------------------------|------------------------|-----------------------*| X2
A|--5-----5-----5--5-----5|--T--5-----5--5--5--5---|--5-----5-----5--5-----5|--T--5-----5--5--5--5--*|
E|------------------------|------------------------|------------------------|------------------------|

Rest for 12 bars (until Bar 156) and loop from beginning


Legend:
S - Sixteenth note
E - Eighth note
Q - Quarter note
H - Half note
W - Whole note
. - Dotted note
T - Tied note


Well, seeing that Undertale's popularity high hasn't really dropped by all that much, I guess I really
don't need to say anything. ...Okay I will say one thing: this song is absolutely awesome!

The way I handled this one makes me kinda think that I'm starting to be a bit smarter about the band-
arrangement type tabs I've been making. Or not, and nothing's actually changed. XD

In any case, hopefully you won't have a bad time with this one. Instead, let's hope it fills you with
DETERMINATION.
Login or Register to remove this ad.