Ads

It's Raining Somewhere Else (Undertale) Guitar Tab

Submitted: Feb 26, 2016 by johnbie (Last updated: Jan 23, 2017)

4.69231
Average: 4.7 (13 votes)
Download | Listen
Game: Undertale
Composer(s): Toby Fox
Style: Arrangement, Fingerstyle

Click here for a video example.

AutoScroll: Slow | Medium | Fast
It's Raining Somewhere Else
Song By Toby Fox
Arranged By John Lee


     ^               ^               ^               ^             
     W       W       W       W       W       W       W       W     
E||-------|-------|-------|-------|-------|-------|-------|-------|
B||-------|-------|-------|-------|-------|-------|-------|-------|
G||--2----|--L----|-------|-------|--0----|--L----|-------|-------|
D||--0----|--L----|--2----|--L----|--2----|--L----|--0----|--L----|
A||--2----|--L----|--0----|--L----|--0----|--L----|--2----|--L----|
E||-------|-------|--2----|--L----|-------|-------|--0----|--L----|


  ^                                                  ^                      
  Q    E  E  Q    E  E     E  E  E  Q    E  E  E     Q    E  E  Q    E  E   
------------------------|-----5--2----------------|------------------------|
-------3--2--3----0--2--|--3--------3----2--0-----|-------2--0--2----------|
--2---------------------|-------------------------|---------------------1--|
--0---------------------|----------------------4--|--2---------------4-----|
--2---------------------|-------------------------|--0---------------------|
------------------------|-------------------------|--2---------------------|


                         ^                                               
  E  Q    H        E     Q    E  E  Q    E  E     E  Q    Q    E  E  E   
-----0----------------|------------------------|-----0------------------|
----------2--------L--|-------1--0--1----------|----------1----0-----0--|
--2-------------------|--0---------------------|--0---------------2-----|
----------------------|--2---------------2--3--|------------------------|
----------------------|--0---------------------|------------------------|
----------------------|------------------------|------------------------|


                                                  ^                      
  Q.     E  E  Q    E     H.           E  E       Q    E  E  Q    E  E   
--------------------2--|--L------------------||-------------------------|
---------------3----3--|--L------------------||--------3--2--3----0--2--|
------------0--4-------|---------------------||*--2-------4-------------|
--2------4--2----------|------------------0--||*--0---------------4-----|
-----------------------|---------------2-----||---2---------------------|
--0--------------------|--L------------------||-------------------------|


                            ^                                              
  E  E  E  Q    E  E  E     Q    E  E  Q    E  E     E  Q    Q.     E  E   
-----5--2----------------|------------------------|-----0-----------------|
--3--------3----2--0-----|-------2--0--2----------|----------2---------L--|
-----------4-------------|------------------------|--2--------------------|
-------------------2--4--|--2-------4-------4--6--|----------4---------0--|
--2----------------------|--0---------------4-----|-----------------4-----|
-------------------------|--2---------------------|--2--------------------|


  ^                                                                        
  Q    E  E  Q    E  E     E  Q    Q    E  E  E     Q.     E  E  E  E  E   
------------------------|-----0------------------|---------------------2--|
-------1--0--1----------|----------1----0-----0--|---------------3-----3--|
--0-------2-------------|--0-------2-------2-----|------------0--4--------|
--2---------------2--3--|------------------------|--2------4--2-----------|
--0---------------------|--0------------------2--|------------------2-----|
------------------0-----|------------------0-----|--0------0--------------|


                           ^                                               
  Q.     Q.     E  E       Q    E  E  E  E  E  E     Q    E  Q.     E  E   
--L--------------------||-------------------------|----------0------2-----|
--L--------------------||-------2--3--2-----2--3--|--2----3---------------|
----------------------*||--2-------4-----2--------|----------4------------|
---------2---------0--*||--0----------------4-----|-----------------2--4--|
----------------2------||--2----------------------|--2--------------------|
--0--------------------||-------------------------|-----------------------|


  ^                                               ^                       
  Q.     E  E  E  E  E     Q.     Q.     E  E     Q    E  E  E  E  E  E   
------------5--4--0-----|--2-------------------|-------------------------|
--2------------------2--|----------------------|-------1--3--1-----1--3--|
---------2--------------|--4-------------------|--0-------2-----2--------|
--2------4--------------|---------4---------0--|--2----------------------|
------------------4-----|----------------4-----|--0----------------------|
--2---------------------|--2-------------------|-------------------0-----|


  Q    E  Q.     E  E     Q.     E  E  E  E   E      Q.     Q.     E  E   
--0----1--0------1-----|------------7-----7--10--|--14-------------------|
-----------------------|--3------8-----8---------|-----------------------|
----------2------------|-------------------------|-----------------------|
-----------------------|-------------------------|--12----------------0--|
--0-----------------2--|-------------------------|----------7------------|
-----------------0-----|--0------0--------7------|---0-------------7-----|


  ^                          ^                      ^                     
           |----3----|                                                    
  H        Q    Q    Q       Q    Q    Q    Q       H        E.  E.  S S  
-----------7----5----2----|--0---------0----2----|--0--------0---7---5-3-|
--------------------------|-------3--------------|-----------------------|
--------------------------|----------------------|--0--------------------|
--3-----------------------|--2-------------------|-----------------------|
--2-----------------------|--0-------------------|--0--------------------|
--3-----------------------|--2-------------------|-----------------------|


                         ^                   ^                 
  H.           E  S S    W                   W                 
--5------------2--3-2-|--3----------------|--3----------------|
----------------------|-------------------|-------------------|
----------------------|--0----------------|--0----------------|
----------------------|--2----------------|--2----------------|
----------------------|--0----------------|--0----------------|
--0-------------------|-------------------|-------------------|


  ^                   ^                       ^                      
  W                   H.           E  E       Q    E  E  Q    E  E   
--2----------------|--2------------------||-------------------------|
-------------------|---------------------||--------3--2--3----0--2--|
--2----------------|--2------------------||*--2-------4-------------|
--1----------------|--1---------------0--||*--0---------------4-----|
--0----------------|--0------------2-----||---2---------------------|
-------------------|---------------------||-------------------------|


                            ^                                              
  E  E  E  Q    E  E  E     Q    E  E  Q    E  E     E  Q    Q.     E  E   
-----5--2----------------|------------------------|-----0-----------------|
--3--------3----2--0-----|-------2--0--2----------|----------2---------L--|
-----------4-------------|------------------------|--2--------------------|
-------------------2--4--|--2-------4-------4--6--|----------4---------0--|
--2----------------------|--0---------------4-----|-----------------4-----|
-------------------------|--2---------------------|--2--------------------|


  ^                                                                        
  Q    E  E  Q    E  E     E  Q    Q    E  E  E     Q.     E  E  E  E  E   
------------------------|-----0------------------|---------------------2--|
-------1--0--1----------|----------1----0-----0--|---------------3-----3--|
--0-------2-------------|--0-------2-------2-----|------------0--4--------|
--2---------------2--3--|------------------------|--2------4--2-----------|
--0---------------------|--0------------------2--|------------------2-----|
------------------0-----|------------------0-----|--0------0--------------|


  Q.     Q.     E  E       Q.     E  E  Q    E     W                  
--L--------------------||--------------------2--|--L----------------||
--L--------------------||---------------3----3--|--L----------------||
----------------------*||------------0--4-------|-------------------||
---------2---------0--*||--2------4--2----------|-------------------||
----------------2------||--------------------2--|--L----------------||
--0--------------------||--0------0-------------|-------------------||




Duration Legend
---------------
W - whole
H - half
Q - quarter
E - 8th
S - 16th
. - note dotted
|-n-|  - n-tuplets


Tablature Legend
----------------
L - tied note
^ - brush up
Login or Register to remove this ad.

2 comments on It's Raining Somewhere Else

the 2 on the 3 note part (7 5

4

the 2 on the 3 note part (7 5 2) its actually a 3 but ok

Decided to learn some UT

5

Sounds beautiful, thanks