Home (Undertale) Guitar Tab

Submitted: Nov 11, 2015 by Jack the Cow

4.8
Average: 4.8 (10 votes)
Download | Listen
Game: Undertale
Composer(s): Toby Fox
Style: Arrangement, Fingerstyle

AutoScroll: Slow | Medium | Fast
Game: Undertale
Song: Home
Composed by Toby Fox
Transcribed by Jack the Cow
17/10/2015


     |--3-|  3         |-3|    3     |--3-|  3         |-3|    3   
     Q    E  Q    Q    E  Q    E     Q    E  Q    Q    E  Q    E   
E||-------------------------------|---------------0---------------|
B||---------------0------------0--|----------------------------0--|
G||----------2------------2-------|----------2------------2-------|
D||-------2------------2----------|-------2------------2----------|
A||--0----------------------------|--4----------------------------|
E||-------------------------------|-------------------------------|


  |--3-|  3         |-3|    3     |--3-|  |--3-|              
  Q    E  Q    Q    E  Q    E     Q    E  Q    H        Q     
-------------------------------|---------------0--------L----|
---------------0------------0--|--L--------------------------|
----------2------------2-------|----------2------------------|
-------2------------2----------|-------2---------------------|
--3----------------------------|-----------------------------|
-------------------------------|-----------------------------|


  |--3-|  3         |-3|    3     |--3-|  3         |-3|    3   
  Q    E  Q    Q    E  Q    E     Q    E  Q    Q    E  Q    E   
-------------------------------|-------------------------------|
---------------0------------0--|---------------0------------0--|
----------2------------2-------|----------2------------2-------|
-------2------------2----------|-------2------------2----------|
--0----------------------------|--4----------------------------|
-------------------------------|-------------------------------|


  |--3-|  3         |-3|    3     |--3-|  3         |-3|    3   
  Q    E  Q    Q    E  Q    E     Q    E  Q    Q    E  Q    E   
---------------0---------------|-------5--4----0---------------|
----------------------------0--|--L--------------------0-------|
----------2------------2-------|--------------------2-------2--|
-------4------------4----------|-------------------------------|
--5----------------------------|-------------------------------|
-------------------------------|-------------------------------|


  |--3-|  3         |-3|    3     |--3-|  3         |-3|    3   
  Q    E  Q    Q    E  Q    E     Q    E  Q    Q    E  Q    E   
-------------------------------|-------------------------------|
---------------0------------0--|---------------0------------0--|
----------2------------2-------|----------2------------2-------|
-------2------------2----------|-------2------------2----------|
--0----------------------------|--4----------------------------|
-------------------------------|-------------------------------|


  |--3-|  3         |-3|    3     |--3-|  3         |-3|    3   
  Q    E  Q    Q    E  Q    E     Q    E  Q    Q    E  Q    E   
--------------------0----------|--------------------0----------|
---------------0-------0-------|---------------0---------------|
----------2-----------------2--|----------2-----------------2--|
-------2-----------------------|-------2---------------2-------|
--3----------------------------|--3------------2---------------|
-------------------------------|-------------------------------|


  |--3-|  3         |-3|    3     |--3-|  3         |-3|    3   
  Q    E  Q    Q    E  Q    E     Q    E  Q    Q    E  Q    E   
----------------------------0--|---------------0---------------|
---------------0---------------|--------------------3--2-------|
----------2------------2-------|----------2-----------------2--|
-------2------------2----------|-------2-----------------------|
--0----------------------------|--4----------------------------|
-------------------------------|-------------------------------|


                                                 ^             
  |--3-|  3         |-3|    3     |----3----|    3             
  Q    E  Q    Q    E  Q    E     Q    Q    Q    H.            
-------------------------------|-----------------0------------|
---------------0------------0--|------------0----0------------|
----------2------------2-------|-------2---------2------------|
-------2------------2----------|------------------------------|
--3----------------------------|--2---------------------------|
-------------------------------|------------------------------|


                      |--3-|  3         3          |--3-|  3         3        
  W                   Q    E  Q    Q    E  Q       Q    E  Q    Q    E  Q     
--L----------------|---------------0------------|---------------0------------|
--L----------------|----------------------------|--0-----------------0-------|
--L----------------|--2-------2---------2-------|----------2------------2----|
-------------------|-------2---------------2----|-------2--------------------|
-------------------|--0-------------------------|--4-------------------------|
-------------------|----------------------------|----------------------------|


       3         3          |--3-|  |--3-|       |--3-|   
  Q    Q    Q    E  Q       Q    E  Q    E  Q    Q    E   
------------0------------|--0----------------------------|
------------1------------|---------------0---------------|
--2--------------2-------|----------2--------------------|
-------2------------2----|-------2----------2---------2--|
--3----------------------|--2--------------------2-------|
-------------------------|-------------------------------|


                            ^                                              
  |--3-|                         3         3                               
  Q    E  Q    Q    Q       Q    Q    Q    E  Q       Q    Q    Q    Q     
--0----------------------|--0---------2------------|--0-------------------|
---------------0---------|--0---------0-------0----|------------0---------|
----------2---------2----|-------2---------2-------|-------2--------------|
-------2-----------------|-------------------------|-----------------2----|
--0----------------------|--4----------------------|--3---------2---------|
-------------------------|-------------------------|----------------------|


  |--3-|  |--3-|  |--3-|          |--3-|  3         3        
  Q    E  Q    E  Q    E  Q       Q    E  Q    Q    E  Q     
-------------------------------|--0-------------------------|
---------------2--0------------|---------------0------------|
--2-------2------------2-------|----------2---------2-------|
-------2------------------2----|-------2---------------2----|
--0----------------------------|--0-------------------------|
-------------------------------|----------------------------|


  |--3-|  3         3          |--3-|       |--3-|        
  Q    E  Q    Q    E  Q       Q    E  Q    Q    E  Q     
---------------0------------|---------------0------------|
--0-----------------0-------|--------------------1-------|
----------2------------2----|--2-------2------------0----|
-------2--------------------|-------2--------------------|
--4-------------------------|--3-------------------------|
----------------------------|----------------------------|


  |--3-|  |--3-|                |--3-|  3         3        
  Q    E  Q    H        Q       Q    E  Q    Q    E  Q     
--0------------0-------------|--0-------------------------|
-----------------------------|---------------0------------|
----------4------------------|----------2---------2-------|
-------4----------------2----|-------2---------------2----|
--2--------------------------|--0-------------------------|
-----------------------------|----------------------------|


                         ^                                                  
                                              |--3-|  |--3-|  |--3-|        
  Q    Q    Q    Q       H        H           Q    E  Q    E  Q    E  Q     
--0---------2---------|--0-----------------|-------------------------------|
----------------------|--3--------0--------|---------------2--0------------|
-------2---------2----|--2-----------------|--2-------2------------2-------|
----------------------|--0-----------------|-------2------------------2----|
--4-------------------|-----------2--------|--0----------------------------|
----------------------|--------------------|-------------------------------|


  ^                                ^        ^              ^           
  Q    Q    Q    Q       Q    Q    E.  Q    S    Q    Q    E.  E.  E   
--0---------0---------|-----------------------|------------4---3---2--|
--3--------------2----|--0------------------0-|--L---------2----------|
--2----2---------2----|-------2----1---2----2-|--L----2----2----------|
--0---------0---------|--0---------0--------2-|--L--------------------|
----------------------|---------------------4-|--L--------------------|
----------------------|-----------------------|-----------------------|


                                   ^                      ^          
  Q    Q    E  Q.        Q    Q    Q    Q       Q    Q    E  Q.      
--0-------------------|--2-------------------|----------------------|
----------------------|------------5----2----|--0---------0--2------|
-------0-------0------|------------2---------|-------2----1---------|
----------------------|-------4----4---------|--2---------2---------|
--3---------3---------|--2---------2---------|----------------------|
----------------------|----------------------|----------------------|


  ^                     ^                      ^                    
  Q    Q    H           Q    Q    Q    Q       Q    Q    Q    Q     
---------------------|----------------------|--0---------0---------|
------------0--------|--0-------------------|--3--------------2----|
--1------------------|--2----2----1---------|--2----2---------2----|
--2----2-------------|--4--------------2----|--0---------0---------|
--4------------------|--4---------2---------|----------------------|
---------------------|----------------------|----------------------|


            ^        ^              ^                                  
  Q    Q    E.  Q    S    Q    Q    E.  E.  E     Q    Q    E  Q.      
-----------------------|------------4---3---2--|--0-------------------|
--0------------------0-|--L---------2----------|----------------------|
-------2----1---2----2-|--L----2----2----------|-------2-------2------|
--0---------0--------2-|--L--------------------|----------------------|
---------------------4-|--L--------------------|--3---------3---------|
-----------------------|-----------------------|----------------------|


  ^                               ^            ^                  
  H        Q    Q       Q    Q    E  Q.        H        H         
--2--------0---------|----------------------|--------------------|
----------------2----|--0---------0--2------|-----------0--------|
--2------------------|-------2----1---------|--1-----------------|
--4------------------|--2---------2---------|--2-----------------|
--2------------------|----------------------|--4-----------------|
---------------------|----------------------|--------------------|


  ^         ^            ^                                       
  Q    Q    Q    Q       W                   H        Q    Q     
----------------------|--0----------------|----------------0----|
--0-------------------|--3----------------|--L--------3---------|
--2----2----1---------|--2----------------|--L------------------|
--4---------2----2----|--0----------------|--L--------2---------|
--4---------2---------|-------------------|---------------------|
----------------------|-------------------|---------------------|


                               ^            ^                 
  W                   H        Q    Q       W                 
-------------------|---------------------|-------------------|
--2----------------|--L--------0----2----|-------------------|
-------------------|-----------2---------|--2----------------|
--0----------------|--L--------2---------|--0----------------|
-------------------|---------------------|-------------------|
-------------------|---------------------|-------------------|


                                           ^                 
  H        H           W                   W                 
--------------------|-------------------|-------------------|
--------------------|-------------------|-------------------|
--L--------2--------|--L----------------|--2----------------|
--L--------0--------|--L----------------|--5----------------|
--------------------|-------------------|--3----------------|
--------------------|-------------------|-------------------|


  ^                   ^                  
  W                   W                  
-------------------|-------------------||
-------------------|-------------------||
--2----------------|--2----------------||
--4----------------|--2----------------||
--2----------------|--0----------------||
-------------------|-------------------||




Duration Legend
---------------
W - whole
H - half
Q - quarter
E - 8th
S - 16th
T - 32nd
X - 64th
. - note dotted
|-n-|  - n-tuplets


Tablature Legend
----------------
L - tied note
x - dead note
g - grace note
(n) - ghost note
> - accentuded note
NH - natural harmonic
AH - artificial harmonic
TH - tapped harmonic
SH - semi harmonic
PH - pitch harmonic
h - hammer on
p - pull off
b - bend
br - bendRelease
pb - preBend
pbr - preBendRelease
brb - bendReleaseBend
\n/ - tremolo bar dip
\n - tremolo bar dive
-/n - tremolo bar Release up
/n\ - tremolo bar inverted dip
/n - tremolo bar return
-\n - tremolo bar Release down
S - shift slide
s - legato slide
/ -  slide into from below or out of upwards
\ -  slide into from above or out of downwards
~ - vibrato
W - wide vibrato
tr - trill
TP - tremolo picking
T - tapping
S - slap
P - pop
< - fade in
^ - brush up
v - brush down
Login or Register to remove this ad.

2 comments on Home

Great tab.

5

Nice work all around.

Goat mom is best mom

5

I love this calm and peaceful song. It brings back memories...