His Theme (Undertale) Guitar Tab

Submitted: Feb 20, 2016 by johnbie (Last updated: Jan 23, 2017)

5
Average: 5 (3 votes)
Download | Listen
Game: Undertale
Composer(s): Toby Fox
Style: Fingerstyle

Click here for a video example.

AutoScroll: Slow | Medium | Fast
His Theme                                                         
Undertale
Song by Toby Fox
Arranged by John Lee

Capo 7 preferred; No capo needed


     E E E E E. E. E     E E E E E. E. E     E E E E E. E. E     E E E E E. E. E     
E||-------------------|-------------------|-------------------|--------0-----------||
B||----3-1---0--0--1--|------1---0--0--1--|----3-1---0--0--1--|------1---3--1--3---||
G||--0-----0----------|----0---0----------|--0-----0----------|----0--------------*||
D||-------------------|-------------------|-------------------|-------------------*||
A||-------------------|-------------------|--0----------------|--3-----------------||
E||--1----------------|--3----------------|-------------------|--------------------||


    E E E E E.  S E E     E E E E E.  S E  E    E E E E E.  S E E     E E E E E.  S E E   
||---------------------|---------------------|---------------------|--------0------------|
||----3-1---0---0---1--|------1---0---0---1--|----3-1---0---0---1--|------1---3---1-1-3--|
||*-0-----0------------|----0---0-------0----|--0-----0------------|----0-0--------------|
||*---------0----------|---------------------|------2---------2----|----------0----------|
||------3---------3----|------3---2----------|--0-------2----------|--3------------------|
||--1------------------|--3------------------|---------------------|---------------------|


  E E E E E.  S E E     E E E E E.  S E E     E E E E E.  S E E     E E E E E.  S E E     
---------------------|---------------------|---------------------|--------0-------------||
----3-1---0---0---1--|------1---0---0---1--|----3-1---0---0---1--|------1---3---1-1-3---||
--0-----0------------|----0---0------------|--0-----0-------2----|----0-0--------------*||
----------0----------|---------------------|------2--------------|----------0----------*||
------3---------3----|------3---2-----3----|--0-------2----------|--3-------------------||
--1------------------|--3------------------|---------------------|----------------------||


||   E E E E E.  S E E     E E E E E.  S E E     E E E E E.  S E E     E E E E E.  S E  E   
||----------------------|---------------------|---------------------|--------0------------|
||-----3-1---0---0---1--|------1---0---0---1--|----3-1---0---0---1--|------1-1-3---1-1-3--|
||*--0-----0-----0---2--|----0-2-0-------0-2--|--0-----0---------2--|----0-0-----------4--|
||*--2---0---0----------|----0----------------|----3-2-2-------2----|----2-----0----------|
||-----------------3----|----------2----------|--0-------2----------|--3------------------|
||---1------------------|--3------------------|---------------------|---------------------|


  E E E E E.  S E E     E E E  E E.  S E E     E E E E E.  S E E     E E E E E.  S E E     
---------------------|----------------------|---------------------|--------0-------------||
----3-1---0---0---1--|------1----0---0---1--|----3-1---0---0---1--|------1-1-3---1-1-3---||
--0-----0-----0---2--|----0-2-0----------2--|--0-----0-------2-2--|----0-0-----------4--*||
--2---0---0----------|----0-----------------|----3-2-2------------|----2-----0----------*||
----------------3----|-----------2-----3----|--0-------2----------|--3-------------------||
--1------------------|--3-------------------|---------------------|----------------------||


  E  E  E  E  E.  S E  E     W                  
--------------------------|-------------------||
-----3--1-----0---0----1--|-------------------||
--0--------0--------------|-------------------||
--2-----------0-----------|-------------------||
--------3-----------3-----|--3----------------||
--1-----------------------|--3----------------||




Duration Legend
---------------
W - whole
H - half
Q - quarter
E - 8th
S - 16th
. - note dotted
Login or Register to remove this ad.

1 comment on His Theme

Awesome!

5

Great Tab, love the build up.

Try playing with capo 11 for original key.