Ads

His Theme (Undertale) Guitar Tab

Submitted: Nov 29, 2015 by Artemis

5
Average: 5 (1 vote)
Download | Listen
Game: Undertale
Composer(s): Toby Fox
Style: Arrangement, Fingerstyle

AutoScroll: Slow | Medium | Fast
Title: His Theme (Asriel)
Artist: Undertale
Music: Toby Fox
Tabber: Artemis - gametabs.net
Tempo = 90
Steel Guitar
11/8/2015

     e     e     e     e     e.       e.       e
E |----------------------------------------------------|
B |--------2-----0-----------------------------0-------|
G |--------------------------3--------3----------------|
D |--4-----------------4-------------------------------|
A |----------------------------------------------------|
E |--2-------------------------------------------------|

  e     e     e     e     e.       e.       e
----------------------------------------------------|
--------------------------------------------0-------|
--------------4-----------3--------3----------------|
--------4-----------4-------------------------------|
----------------------------------------------------|
--2-------------------------------------------------|

  e     e     e     e     e.       e.       e
----------------------------------------------------|
--------2-----0-----------------------------0-------|
--------------------------3--------3----------------|
--4-----------------4-------------------------------|
----------------------------------------------------|
--4-------------------------------------------------|

  e     e     e     e     e.       e.       e
---------------------------------------------------|||
--0-----------------4-----2-----------------2------|||
--------------4--------------------4--------------o|||
--------4-----------------------------------------o|||
---------------------------------------------------|||
---------------------------------------------------|||

  e     e     e     e     e.       e.       e
----------------------------------------------------|
--------2-----0-----------------------------0-------|
o-------------------------3--------3----------------|
o-4-----------------4-----4-------------------------|
--------------2--------------------2----------------|
--0-------------------------------------------------|

  e     e     e     e     e.       e.       e
----------------------------------------------------|
----------------------------------------------------|
--------------4-----------3--------3--------4-------|
--------4-----------4--------------4----------------|
--------------2-------------------------------------|
--2-------------------------------------------------|

  e     e     e     e     e.       e.       e
----------------------------------------------------|
--------2-----0-----------------------------0-------|
--------------------------3--------3----------------|
--4-----------1-----4--------------1----------------|
----------------------------------------------------|
--4-------------------------------------------------|

  e     e     e     e     e.       e.       e
----------------------------------------------------|
--------------------4-----2--------0--------2-------|
--------------4-------------------------------------|
--------4-----4-------------------------------------|
--2-------------------------------------------------|
----------------------------------------------------|

  e     e     e     e     e.       e.       e
----------------------------------------------------|
--------2-----0-----------------------------0-------|
--------------------------3--------3----------------|
--4-----------------4-------------------------------|
--------------2--------------------2----------------|
--0-------------------------------------------------|

  e     e     e     e     e.       e.       e
----------------------------------------------------|
--------------------------------------------0-------|
--------------4-----------3--------3----------------|
--------4-----------4-------------------------------|
--------------2--------------------2----------------|
--2-------------------------------------------------|

  e     e     e     e     e.       e.       e
----------------------------------------------------|
--------2-----0-----------------------------0-------|
--------------------------3--------3----------------|
--4-----------1-----4-------------------------------|
----------------------------------------------------|
--4-------------------------------------------------|

  e     e     e     e     e.       e.       e
---------------------------------------------------||
--------------------4-----2-----------------2------||
--------------4--------------------4--------------o||
--------4-----4-----------------------------------o||
--2------------------------------------------------||
---------------------------------------------------||

  e     e     e     e     e.       e.       e
----------------------------------------------------|
--------2-----0-----------------------------0-------|
--------------------------3--------3----------------|
--4-----2-----------1-----4--------4--------6-------|
--6-----------4-------------------------------------|
--------------------2-------------------------------|

  e     e     e     e     e.       e.       e
----------------------------------------------------|
--------------0-----------------------------0-------|
--------------------------3--------3--------1-------|
--------4-----6-----4-----4--------4----------------|
--------4-----------2-------------------------------|
--2-------------------------------------------------|

  e     e     e     e     e.       e.       e
----------------------------------------------------|
--------2-----0-----------------------------0-------|
--------------------------3--------3--------1-------|
--1-----2-----------1-----4--------4----------------|
--------------4-------------------------------------|
--2-----------------2-------------------------------|

  e     e     e     e     e.       e.       e
----------------------------------------------------|
--------------0-----4-----2--------0--------2-------|
--------------------4-----3-------------------------|
--------4-----4--------------------4--------4-------|
--2-----6-------------------------------------------|
----------------------------------------------------|

  e     e     e     e     e.       e.       e
----------------------------------------------------|
--------2-----0-----------------------------0-------|
--------------------------3--------3--------1-------|
--1-----2-----------1-----4--------4----------------|
--------------4-------------------------------------|
--2-----------------2-------------------------------|

  e     e     e     e     e.       e.       e
----------------------------------------------------|
--------------------------------------------0-------|
--------------4-----------3--------3----------------|
--------4-----6-----4-----4--------4--------6-------|
--------2-----------2-------------------------------|
--2-------------------------------------------------|

  e     e     e     e     e.       e.       e
----------------------------------------------------|
--------2-----0-----------------------------0-------|
--------------------------3--------3--------1-------|
--1-----2-----------1-----4--------4----------------|
--------------4-------------------------------------|
--2-----------------2-------------------------------|

  e     e     e     e     e.       e.       e
----------------------------------------------------|
--------------0-----4-----2--------0--------2-------|
--------------------4-----3-------------------------|
--------4-----4--------------------4----------------|
--2-----6-------------------------------------------|
--------------------------------------------2-------|

  e     e     e     e     e.       e.       e          w
----------------------------------------------------|-------||
--------------0-----------------------------0L------|--0----||
--------6-----------------3--------3----------------|-------||
--4-----------------4-----4-------------------------|-------||
--7-----------2--------------------2----------------|--2----||
----------------------------------------------------|-------||

Login or Register to remove this ad.

1 comment on His Theme

Seeing this tab...

5

... it fills me with D --

-- esire to learn. :3