Heartache (Undertale) Guitar Tab

Submitted: Jul 21, 2016 by BacardiBreezer

5
Average: 5 (1 vote)
Download | Listen
Game: Undertale
Composer(s): Toby Fox
Style: Transcription

AutoScroll: Slow | Medium | Fast
Heartache (Toriel Battle)
Undertale
Composer: Toby Fox
Tabbed by BB
6/9/16

Tabbed for solo guitar

e|---------------------------|---------------------------|---------------------------|
B|---------------------------|---------------------------|---------------------------|
G|----------------------1----|----------------------1----|----------------------1----|
D|------------------------3--|------------------------3--|------------------------3--|
A|--1-4-3-4-1-----1-3-4------|--1-4-3-4-1-----1-3-4------|--1-4-3-4-1-----1-3-4------|
E|---------------------------|---------------------------|---------------------------|

e|-----------------|-----------------|------------|---------------|
B|----1------------|-----------------|------------|--2-2-2-2-2-2--|
G|------3-1-----1--|--3-3-3-3-3-3-3--|------L-----|---------------|
D|--1-------4p3----|-----------------|------------|---------------|
A|-----------------|-----------------|------------|---------------|
E|-----------------|-----------------|------------|---------------|

e|-----8----------------------|------------9---11-9-8----9--------|
B|--------11---9-7-6---9-11~--|-----9-11--------------------11----|
G|--8-------------------------|--10-------------------------------|
D|----------------------------|-----------------------------------|
A|----------------------------|-----------------------------------|
E|----------------------------|-----------------------------------|

e|---------------------------|---------------------------|---------------------------|----8---------------------|
B|---------------------------|---------------------------|---------------------------|-------11---9-7-6---9-11--|
G|----------------------1----|----------------------1----|----------------------1----|--8-----------------------|
D|------------------------3--|------------------------3--|------------------------3--|--------------------------|
A|--1-4-3-4-1-----1-3-4------|--1-4-3-4-1-----1-3-4------|--1-4-3-4-1-----1-3-4------|--------------------------|
E|---------------------------|---------------------------|---------------------------|--------------------------|

e|---------------------------|---------------------------|------------8-9-11-9-8---------|
B|---------------------------|---------------------------|-------9-11------------11-9----|
G|----------------------1----|----------------------1----|--8-10----------------------10-|
D|------------------------3--|------------------------3--|-------------------------------|
A|--1-4-3-4-1-----1-3-4------|--1-4-3-4-1-----1-3-4------|-------------------------------|
E|---------------------------|---------------------------|-------------------------------|

*

e|-----8----------------------|------------9---11-9-8----9--------|--------9-13----9-11-13-----11--9-11-8---------|
B|--------11---9-7-6---9-11~--|-----9-11--------------------11----|-----11----------------------------------9--11-|
G|--8-------------------------|--10-------------------------------|--10-------------------------------------------|
D|----------------------------|-----------------------------------|-----------------------------------------------|
A|----------------------------|-----------------------------------|-----------------------------------------------|
E|----------------------------|-----------------------------------|-----------------------------------------------|

e|-------13---------------------16--13--|--9-11-13---11---9-11-8---------|
B|-14-16-------16---14-16-13------------|---------------------------9-11-|
G|--------------------------------------|--------------------------------|
D|--------------------------------------|--------------------------------|
A|--------------------------------------|--------------------------------|
E|--------------------------------------|--------------------------------|

e|------------------9-|--11-11--11---11-11-11-11-|--11-11--11---11-11----14--16--|
B|--------------------|--12-12--12---12-11-11-11-|---9--9---9----9--9------------|
G|--10---8----11------|--------------------------|-------------------------------|
D|--------------------|----------------------------------------------------------|
A|--------------------|----------------------------------------------------------|
E|--------------------|----------------------------------------------------------|

e|---------------------------|---------------------------|
B|---------------------------|---------------------------|
G|----------------------4----|----------------------4----|
D|------------------------4--|------------------------4--|
A|--2-6-4-6-2-----2-4-6------|--2-6-4-6-2-----2-4-6------|
E|---------------------------|---------------------------|

e|--12/16-16----15-15-15--|--12/16-16-16----15-13-11---13----13-13-13-13-13---|--12/16-16----15-15-15--|
B|------------------------|---------------------------------------------------|------------------------|
G|------------------------|---------------------------------------------------|------------------------|
D|------------------------|---------------------------------------------------|------------------------|
A|------------------------|---------------------------------------------------|------------------------|
E|------------------------|---------------------------------------------------|------------------------|

e|----8--------------------|-----11-9-11-13-|--11-14-13-11-13-|-14---13-14-11--13----|-11----------------|------------------------|
B|------11---9-7-6---9--11-|--12------------|-----------------|-------------------14-|----13-14----------|------------------------|
G|--8----------------------|----------------|-----------------|----------------------|----------15-13----|----13--15--------13-15-|
D|-------------------------|----------------|-----------------|----------------------|----------------15-|-16--------15--16-------|
A|-------------------------|----------------|-----------------|----------------------|-------------------|------------------------|
E|-------------------------|----------------|-----------------|----------------------|-------------------|------------------------|

e|--12/16-16----15-15-15--|--12/16-16-16--15-13-11--|
B|------------------------|-------------------------|
G|------------------------|-------------------------|
D|------------------------|-------------------------|
A|------------------------|-------------------------|
E|------------------------|-------------------------|

e|----------11-9-11-13-|-11-14-13-11-13-|-14--13-14-11--13----|--11----------------|---------------------------------------|
B|--11---12------------|----------------|------------------14-|-----13-14----------|---------------------------------------|
G|---------------------|----------------|---------------------|-----------15-13----|----13---15---------13--15-------------|
D|---------------------|----------------|---------------------|-----------------15-|-16---------15---16---------15-16-15---|
A|---------------------|----------------|---------------------|--------------------|---------------------------------------|
E|---------------------|----------------|---------------------|--------------------|---------------------------------------|

Loop back at *
Login or Register to remove this ad.