Heartache (Undertale) Guitar Tab

Submitted: Jun 23, 2016 by johnbie

5
Average: 5 (4 votes)
Download | Listen
Game: Undertale
Composer(s): Toby Fox
Style: Arrangement, Fingerstyle

AutoScroll: Slow | Medium | Fast
Heartache
Song By Toby Fox
Arranged By John Lee


6/4
     S S S S E  S S S S E  S S S S E  S S S S E     S S S S E  S S S S E  E  E  E  S S E  E   
E||----------------------------------------------|-------------------------------------------|
B||----------------------------------------------|---------------------------0---------------|
G||-------------------0---------------------0----|-------------------0----------2--0------0--|
D||---------------------2---------------------2--|---------------------2--0----------3-2-----|
A||--0-3-2-3-0--0-2-3------0-3-2-3-0--0-2-3------|--0-3-2-3-0--0-2-3------------2------2-----|
E||----------------------------------------------|------------------------0------------------|


  S S S S E  S S S S E  S S S S E  S S S S E     S S S S E  S S S S E  E  E  E  S S E  E   
----------------------------------------------|---------------------------7--5--3-1-0--3--|
----------------------------------------------|------------------------3------------------|
--2----------------0---------------------0----|-------------------0-----------------------|
---------------------2---------------------2--|---------------------2---------------------|
--0-3-2-3-0--0-2-3------0-3-2-3-0--0-2-3------|--0-3-2-3-0--0-2-3-------------------2-----|
----------------------------------------------|------------------------3-----3------------|


  E  E  E  E  E  E  E  E  E  S S E  E     E  S S S S E  S S S S E  S S S S E  E  E   
---------------------------------------|--------------------------------------------|
--------------------------1--3-1-0--1--|--------------------------------------------|
--2--------------0--2------------------|--2-----------------------------------------|
--------------2--------0---------------|-----0-3--------0-3--------0-3--------------|
-----2--0-----2------------------------|--0------3---0------3---0------3---0--------|
--1--------1--------3------------0-----|-----------3----------3----------3----0--3--|


  S S S S E  S S S S E  S S S S E  S S S S E     S S S S E  S S S S E  E  E  E  S S E  E   
----------------------------------------------|-------------------------------------------|
----------------------------------------------|---------------------------0---------------|
-------------------0---------------------0----|-------------------0----------2--0------0--|
---------------------2---------------------2--|---------------------2--0----------3-2-----|
--0-3-2-3-0--0-2-3------0-3-2-3-0--0-2-3------|--0-3-2-3-0--0-2-3------------2------2-----|
----------------------------------------------|------------------------0------------------|


  S S S S E  S S S S E  S S S S E  S S S S E     E  S S S S S S S S S S E  E  E  S S E  E   
----------------------------------------------|----------------------------7--5--3-1-0--3--|
----------------------------------------------|-------------------------3------------------|
--2----------------0---------------------0----|--------------------------------------------|
---------------------2---------------------2--|-------------0------------------------------|
--0-3-2-3-0--0-2-3------0-3-2-3-0--0-2-3------|-------0-2-3---3-2-0------------------2-----|
----------------------------------------------|--0--3---------------3-0-3-----3------------|


  E  E  E  E  E  E  E  E  E  S S E  E     E  S S S S E  S S S S E  S S S S E  E  E   
---------------------------------------|--------------------------------------------|
--------------------------1--3-1-0--1--|--------------------------------------1--3--|
--2--------------0--2------------------|--2--------------------------------2--------|
--------------2--------0---------------|-----0-3--------0-3--------0-3--------------|
-----2--0-----2------------------------|--0------3---0------3---0------3---0--------|
--1--------1--------3------------0-----|-----------3----------3----------3----------|


  E  E  E  E  E  E  E  E  E  S S E  E     E  E  E  E  E  E  E  E  E  S S E  E   
--0-----------------0------------------|---------------------------------------|
--------------1--3--------3--1-3-0-----|---------------------------------------|
------------------------------------0--|--2---------------------------------0--|
--------------------------2------------|--------2--------0--2-----0----0-------|
-----------------------2---------------|-----3--------3--------------3---2-----|
--0--3--1--0--3-----0------------3-----|--1--------0-----------0---------------|


  E  E  E  E  E  E  E  E  E  S S E  E     E  E  E  E  E  E  E  E  E  E  E  E   
--------------------0------------------|--------------------------------------|
--------------1--3--------3--1-3-0-----|--------------------------------------|
------------------------------------0--|--2-----------------------------------|
--2-----------------------0------0-----|-----------------0-----------0--3--7--|
-----3--------3--------2---------------|--0--2--3--1--3-----0--1--3-----------|
--1-----0--1--------3------------------|--------------------------------------|


   S  E   E    S  E   E   E    S  E   E    S  E   E   E
--10-10--10---10-10--10--10---10-10--10---10-10--10--10---|
----------------------------------------------------------|
----------------------------------------------------------|
--12----------12--------------12----------12--------------|
----------------------------------------------------------|
----------------------------------------------------------|


  S S S S E  S S S S E  S S S S E  S S S S E     E   E  E  E  E  E  E   E  E  E  S S E   
----------------------------------------------|--0-s-3--3--2--2--2--0-s-3--3--3--2-0----|
----------------------------------------------|--------------------------------------3--|
-------------------3---------------------3----|-----------------------------------------|
---------------------3---------------------3--|-----------------------------------------|
--1-4-3-4-1--1-3-4------1-4-3-4-1--1-3-4------|--0--------------------------------------|
----------------------------------------------|---------------------0-------------------|


  S S S S E  S S S S E  S S S S E  S S S S E     E   E  E  E  E  E  E  E  E  S S E  E   
--0-------------------------------------------|--0-s-3--3--2--2--2---------------------|
----------------------------------------------|------------------------0---------------|
-------------------3---------------------3----|---------------------------2--0------0--|
---------------------3---------------------3--|---------------------0----------3-2-----|
--1-4-3-4-1--1-3-4------1-4-3-4-1--1-3-4------|--0-------------------------------2-----|
----------------------------------------------|---------------------3-----0------------|


  E  E  E  E  E  E  E  E  E  E  E  E     E  E  E  S S E  E  E  E  E  S S E  E   
--------------------0--------1--0-----|--0-----1--0-1----0---------------------|
--------1--3--1--3--------3--------3--|---------------3-----1-----3--0-1-------|
--2-----------------------------------|----------------------------------2--0--|
-----------------3-----------------3--|------------------------------0---------|
-----3-----------------3-----1--------|-----2-----0----------------------------|
--------------------------------------|------------------------3---------------|


  E  E  E  E  E  E  E  E  E  E  E  E     E   E  E  E  E  E  E   E  E  E  S S E   
--------------------------------------|--0-s-3--3--2--2--2--0-s-3--3--3--2-0----|
--------------------------------------|--------------------------------------3--|
-----------0-----2-----------0-----2--|-----------------------------------------|
--2-----3-----------2-----3-----------|-----------------------------------------|
-----3--------3--------3--------3-----|--0--------------------------------------|
--------------------------------------|---------------------0-------------------|


  E  E  E  E  E  E  E  E  E  E  E  E     E  E  E  S S E  E  E  E  E  S S E  E   
--------------------0--------1--0-----|--0-----1--0-1----0---------------------|
--------1--3--1--3--------3--------3--|---------------3-----1-----3--0-1-------|
--2-----------------------------------|----------------------------------2--0--|
-----------------3-----------------3--|------------------------------0---------|
-----3-----------------3-----1--------|-----2-----0----------------------------|
--------------------------------------|------------------------3---------------|


  E  E  E  E  E  E  E  E  E  E  E  E     S S H        E  E  E  E  S S E  E   
--------------------------------------|---------------------7--5--3-1-0--3--|
--------------------------------------|------------------3------------------|
-----------0-----2-----------0-----2--|-------------------------------------|
--2-----3-----------2-----3-----------|--2-3-2------------------------------|
-----3--------3--------3--------3-----|--0----------------------------2-----|
--------------------------------------|------------------3-----3------------|


  E  E  E  E  E  E  E  E  E  S S E  E     E  S S S S E  S S S S E  S S S S E  E  E   
---------------------------------------|--------------------------------------------|
--------------------------1--3-1-0--1--|--------------------------------------1--3--|
--2--------------0--2------------------|--2--------------------------------2--------|
--------------2--------0---------------|-----0-3--------0-3--------0-3--------------|
-----2--0-----2------------------------|--0------3---0------3---0------3---0--------|
--1--------1--------3------------0-----|-----------3----------3----------3----------|


  E  E  E  E  E  E  E  E  E  S S E  E     E  E  E  E  E  E  E  E  E  S S E  E   
--0-----------------0------------------|---------------------------------------|
--------------1--3--------3--1-3-0-----|---------------------------------------|
------------------------------------0--|--2---------------------------------0--|
--------------------------2------------|--------2--------0--2-----0----0-------|
-----------------------2---------------|-----3--------3--------------3---2-----|
--0--3--1--0--3-----0------------3-----|--1--------0-----------0---------------|


  E  E  E  E  E  E  E  E  E  S S E  E     E  E  E  E  E  E  E  E  E  S S E  E   
--------------------0------------------|--------------------0------------------|
--------------1--3--------3--1-3-0-----|--------------1--3--------3--1-3-0-----|
------------------------------------0--|------------------------------------0--|
--2-----------------------0------0-----|--2-----------------------0------0-----|
-----3--------3--------2---------------|-----3--------3--------2---------------|
--1-----0--1--------3------------------|--1-----0--1--------3------------------|


  E  S S S S E  S S S S E.  S E  E  E  E            
------------------------------------------|-------||
------------------------------------------|-------||
--2---------------------------------------|-------||
-----0-3--------0-3-----------------------|-------||
--0------3---0------3---0---0----0--0--0--|-------||
-----------3----------3-------------------|-------||




Duration Legend
---------------
W - whole
H - half
Q - quarter
E - 8th
S - 16th
T - 32nd
. - note dotted


Tablature Legend
----------------
L - tied note
s - legato slide
Login or Register to remove this ad.

3 comments on Heartache

Hey, I'd like you to know

5

Hey, I'd like you to know that I'm loving your Undertale arrangements. They're all awesome, and this one is really interesting. I hope you keep sharing your work with us!

Also, I'm looking forward to see a "Dummy!" arrangement from you. It's my favorite Undertale song.

Glad to see that you like my tabs

As for Dummy tab... I can't guarantee anything, but I'll see if I can get it out before the year ends.

Tab completed before 2016

https://www.gametabs.net/forum/topic/85479