Ads

Goodnight (Undertale) Guitar Tab

Submitted: Jan 02, 2017 by doot

5
Average: 5 (1 vote)
Download | Listen
Game: Undertale
Composer(s): Toby Fox
Style: Arrangement, Fingerstyle

AutoScroll: Slow | Medium | Fast
Goodnight - Undertale
Arranged by Caleb B.
Composed by Toby Fox

Guitar 1:

E|-0---------7---------|---------------------|-0-------------------|--------|
B|---------------------|-----------12--------|-----------12--------|--------|
G|-----------9---------|-11------------------|-----------12--------|--------|
D|------9--------------|------13-------------|------12-------------|-9------|
A|-7-------------------|-11------------------|-10------------------|-9------|
E|---------------------|---------------------|---------------------|--------|


E|-0-------------------|---------------------|---------------------|--------|
B|-----------9---------|-12--------14--------|-12------------------|--------|
G|-----------9---------|-----------13--------|-----------11--------|-9------|
D|------9--------------|------13-------------|------12-------------|--------|
A|-7-------------------|-11------------------|-10------------------|-9------|
E|---------------------|---------------------|---------------------|--------|



Login or Register to remove this ad.